Song name
# A B C D E F G H I J K L M N O P Q R S T U V W X Y Z

Papa Roach - Thrown Away tab

Gtr I (D A D G B E) - 'Jerry Horton'
Gtr II (D A D G B E) - 'Tremolo Picking'


 Intro
  Q=98
  E5          E5          E5  D5  F5    F5    F5    F5    F5  D5
 4/4
  Gtr I
            PM          PM                  PM          PM
  S S S S S S S S S S S S S S E   S S S S S S S S S S S S S S E
|-------------------------------|--------------------------------|
|-------------------------------|--------------------------------|
|-------------------------------|--------------------------------|
|-------------------------------|--------------------------------|
|-2-2---2-----2-2---2-----2-2-0-|-3-3---3-----3-3---3-----3-3-0--|
|-2-2---2---0-2-2---2---0-2-2-0-|-3-3---3---0-3-3---3---0-3-3-0--|


  E5          E5          E5  D5  F5          F5              D5
            PM          PM                  PM          PM--|
  S S S S S S S S S S S S S S E   S S S S S S S S S S S S S S E
|-------------------------------|-------------------------------|
|-------------------------------|-------------------------------|
|-------------------------------|-------------------------------|
|-------------------------------|-------------------------------|
|-2-2---2-----2-2---2-----2-2-0-|-3-3---3-----3-3---3---------0-|
|-2-2---2---0-2-2---2---0-2-2-0-|-3-3---3---0-3-3---3---0-3-3-0-|


    E5          E5          E5  D5  F5          F5          F5  D5
              PM          PM                  PM          PM
    S S S S S S S S S S S S S S E   S S S S S S S S S S S S S S E
||--------------------------------|---------------------------------||
||o-------------------------------|--------------------------------o||
||--------------------------------|---------------------------------||
||--------------------------------|---------------------------------||
||o-2-2---2-----2-2---2-----2-2-0-|-3-3---3-----3-3---3-----3-3-0--o||
||--2-2---2---0-2-2---2---0-2-2-0-|-3-3---3---0-3-3---3---0-3-3-0---||


  E5                          D5  F5                           D5
  S S S S S S S S S S S S S S E    S S S S S S S S S S S S S S E
|-------------------------------|--------------------------------|
|-------------------------------|--------------------------------|
|-------------------------------|--------------------------------|
|-------------------------------|--------------------------------|
|-2-2-2---2-2-2---2-2-2---2-2-0-|--3-3-3---3-3-3---3-3-3---3-3-0-|
|-2-2-2---2-2-2---2-2-2---2-2-0-|--3-3-3---3-3-3---3-3-3---3-3-0-|
|
| Gtr II
| TP                               TP
| W                                W
|-------------------------------|--------------------------------|
|-------------------------------|--------------------------------|
|-9-----------------------------|-10-----------------------------|
|-x-----------------------------|--x-----------------------------|
|-7-----------------------------|--8-----------------------------|
|-------------------------------|--------------------------------|


  E5                           D5  F5                           D5
                                                          PM--|
   S S S S S S S S S S S S S S E    S S S S S S S S S S S S S S E
|--------------------------------|--------------------------------||
|--------------------------------|--------------------------------||
|--------------------------------|--------------------------------||
|--------------------------------|--------------------------------||
|--2-2-2---2-2-2---2-2-2---2-2-0-|--3-3-3---3-3-3---3-3-3-------0-||
|--2-2-2---2-2-2---2-2-2---2-2-0-|--3-3-3---3-3-3---3-3-3-0-2-3-0-||
|
|  TP                               TP
|  W                                W
|--------------------------------|--------------------------------||
|--------------------------------|--------------------------------||
|-16-----------------------------|-17-----------------------------||
|--x-----------------------------|--x-----------------------------||
|-14-----------------------------|-15-----------------------------||
|--------------------------------|--------------------------------||


   Verse
    E5                          D5  F5                          D5
    S S S S S S S S S S S S S S E   S S S S S S S S S S S S S S E
||--------------------------------|--------------------------------|
||o-------------------------------|--------------------------------|
||--------------------------------|--------------------------------|
||--------------------------------|--------------------------------|
||o-2-2-2---2-2-2---2-2-2---2-2-0-|-3-3-3---3-3-3---3-3-3---3-3-0--|
||--2-2-2---2-2-2---2-2-2---2-2-0-|-3-3-3---3-3-3---3-3-3---3-3-0--|


  E5                          D5  F5                          D5
                                                        PM--|
  S S S S S S S S S S S S S S E   S S S S S S S S S S S S S S E
|-------------------------------|-------------------------------|
|-------------------------------|-------------------------------|
|-------------------------------|-------------------------------|
|-------------------------------|-------------------------------|
|-2-2-2---2-2-2---2-2-2---2-2-0-|-3-3-3---3-3-3---3-3-3-------0-|
|-2-2-2---2-2-2---2-2-2---2-2-0-|-3-3-3---3-3-3---3-3-3-0-2-3-0-|


  E5                          D5  F5                          D5
  S S S S S S S S S S S S S S E   S S S S S S S S S S S S S S E
|-------------------------------|-------------------------------|
|-------------------------------|-------------------------------|
|-------------------------------|-------------------------------|
|-------------------------------|-------------------------------|
|-2-2-2---2-2-2---2-2-2---2-2-0-|-3-3-3---3-3-3---3-3-3---3-3-0-|
|-2-2-2---2-2-2---2-2-2---2-2-0-|-3-3-3---3-3-3---3-3-3---3-3-0-|


  E5                          D5  F5                        A5
  S S S S S S S S S S S S S S E   S S S S S S S S S S S S S S E
|-------------------------------|-------------------------------||
|-------------------------------|-------------------------------||
|-------------------------------|-------------------------------||
|-------------------------------|-------------------------------||
|-2-2-2---2-2-2---2-2-2---2-2-0-|-3-3-3---3-3-3---3-3-3---3-7-7-||
|-2-2-2---2-2-2---2-2-2---2-2-0-|-3-3-3---3-3-3---3-3-3---3-7-7-||


 Pre-Chorus
  B5
   S  S  S  S  S  S  S  S  S  S  S  S  S  S  S  S
|-------------------------------------------------|
|-------------------------------------------------|
|-11-11-11-11-11-11-11-11-11-11-11-11-11-11-11-11-|
|--9--9--9--9--9--9--9--9--9--9--9--9--9--9--9--9-|
|--9--9--9--9--9--9--9--9--9--9--9--9--9--9--9--9-|
|--9--9--9--9--9--9--9--9--9--9--9--9--9--9--9--9-|


  Gmaj7sus4/C                         B5/F#
   S  S  S  S  S  S  S  S  S  S  S  S  S  S  S  S
|-------------------------------------------------|
|-------------------------------------------------|
|-11-11-11-11-11-11-11-11-11-11-11-11-11-11-11-11-|
|-10-10-10-10-10-10-10-10-10-10-10-10--9--9--9--9-|
|-10-10-10-10-10-10-10-10-10-10-10-10--9--9--9--9-|
|-10-10-10-10-10-10-10-10-10-10-10-10-------------|


  B5                                           D5
   S  S  S  S  S  S  S  S  S  S  S  S  S  S  S S
|------------------------------------------------|
|------------------------------------------------|
|-11-11-11-11-11-11-11-11-11-11-11-11-11-11-11---|
|--9--9--9--9--9--9--9--9--9--9--9--9--9--9--9---|
|--9--9--9--9--9--9--9--9--9--9--9--9--9--9--9-0-|
|--9--9--9--9--9--9--9--9--9--9--9--9--9--9--9-0-|


  G#5
  S S S S S S S S S S S S S S S S
|---------------------------------|
|---------------------------------|
|-8-8-8-8-8-8-8-8-8-8-8-8-8-8-8-8-|
|-6-6-6-6-6-6-6-6-6-6-6-6-6-6-6-6-|
|-6-6-6-6-6-6-6-6-6-6-6-6-6-6-6-6-|
|-6-6-6-6-6-6-6-6-6-6-6-6-6-6-6-6-|


  B5
   S  S  S  S  S  S  S  S  S  S  S  S  S  S  S  S
|-------------------------------------------------|
|-------------------------------------------------|
|-11-11-11-11-11-11-11-11-11-11-11-11-11-11-11-11-|
|--9--9--9--9--9--9--9--9--9--9--9--9--9--9--9--9-|
|--9--9--9--9--9--9--9--9--9--9--9--9--9--9--9--9-|
|--9--9--9--9--9--9--9--9--9--9--9--9--9--9--9--9-|


  Gmaj7sus4/C                         B5/F#
   S  S  S  S  S  S  S  S  S  S  S  S  S  S  S  S
|-------------------------------------------------|
|-------------------------------------------------|
|-11-11-11-11-11-11-11-11-11-11-11-11-11-11-11-11-|
|-10-10-10-10-10-10-10-10-10-10-10-10--9--9--9--9-|
|-10-10-10-10-10-10-10-10-10-10-10-10--9--9--9--9-|
|-10-10-10-10-10-10-10-10-10-10-10-10-------------|


  B5                                           D5
   S  S  S  S  S  S  S  S  S  S  S  S  S  S  S S
|------------------------------------------------|
|------------------------------------------------|
|-11-11-11-11-11-11-11-11-11-11-11-11-11-11-11---|
|--9--9--9--9--9--9--9--9--9--9--9--9--9--9--9---|
|--9--9--9--9--9--9--9--9--9--9--9--9--9--9--9-0-|
|--9--9--9--9--9--9--9--9--9--9--9--9--9--9--9-0-|


  G#5                           D5
  S S S S S S S S S S S S S S S S
|---------------------------------||
|---------------------------------||
|-8-8-8-8-8-8-8-8-8-8-8-8-8-8-8---||
|-6-6-6-6-6-6-6-6-6-6-6-6-6-6-6---||
|-6-6-6-6-6-6-6-6-6-6-6-6-6-6-6-0-||
|-6-6-6-6-6-6-6-6-6-6-6-6-6-6-6-0-||


 Chorus
  E5      E5      E5      E5  D5  F5      F5      F5      F5  D5
  S S  E  S S  E  S S  E  S S E   S S  E  S S  E  S S  E  S S E
|-------------------------------|-------------------------------|
|-------------------------------|-------------------------------|
|-----<5>-----<5>-----<5>-------|-----<5>-----<5>-----<5>-------|
|-------------------------------|-------------------------------|
|-2-2-----2-2-----2-2-----2-2-0-|-3-3-----3-3-----3-3-----3-3-0-|
|-2-2-----2-2-----2-2-----2-2-0-|-3-3-----3-3-----3-3-----3-3-0-|


  E5      E5      E5      E5  D5  F5      F5      F5      F5  D5
  S S  E  S S  E  S S  E  S S E   S S  E  S S  E  S S  E  S S E
|-------------------------------|--------------------------------||
|-------------------------------|-------------------------------o||
|-----<5>-----<5>-----<5>-------|-----<5>-----<5>-----<5>--------||
|-------------------------------|--------------------------------||
|-2-2-----2-2-----2-2-----2-2-0-|-3-3-----3-3-----3-3-----3-3-0-o||
|-2-2-----2-2-----2-2-----2-2-0-|-3-3-----3-3-----3-3-----3-3-0--||


 Chorus/Breakdown
  S S  E  S S  E  S S  E  S S  E    S S  E  S S  E  S S  E  S S E
|---------------------------------|-------------------------------|
|---------------------------------|-------------------------------|
|---------------------------------|-------------------------------|
|---------------------------------|-------------------------------|
|-----<5>-------------<5>-----<2>-|-----<5>-------------<5>-------|
|-2-2-----2-2-<5>-2-2-----2-2-----|-3-3-----3-3-<5>-3-3-----3-3-0-|


  S S  E  S S  E  S S  E  S S  E
|----------------------------------|
|----------------------------------|
|----------------------------------|
|----------------------------------|
|-----<5>-------------<5>-----<2>--|
|-2-2-----2-2-<5>-2-2-----2-2------|


  S S  E  S S  E  S S  E  S S E
|-------------------------------|
|-------------------------------|
|-------------------------------|
|-------------------------------|
|-----<5>-------------<5>-------|
|-3-3-----3-3-<5>-3-3-----3-3-0-|


  E5                    D5  F5                    D5
  S S E S S E S S E S S E   S S E S S E S S E S S E
|-------------------------|--------------------------|
|-------------------------|--------------------------|
|-------------------------|--------------------------|
|-------------------------|--------------------------|
|-2-2---2-2---2-2---2-2-0-|-3-3---3-3---3-3---3-3-0--|
|-2-2---2-2---2-2---2-2-0-|-3-3---3-3---3-3---3-3-0--|


  E5                    D5  F5                    D5
  S S E S S E S S E S S E   S S E S S E S S E S S E
|-------------------------|-------------------------|
|-------------------------|-------------------------|
|-------------------------|-------------------------|
|-------------------------|-------------------------|
|-2-2---2-2---2-2---2-2-0-|-3-3---3-3---3-3---3-3-0-|
|-2-2---2-2---2-2---2-2-0-|-3-3---3-3---3-3---3-3-0-|


    E5          E5          E5  D5  F5          F5          F5  D5
              PM          PM                  PM          PM
    S S S S S S S S S S S S S S E   S S S S S S S S S S S S S S E   4x
||--------------------------------|---------------------------------||
||o-------------------------------|--------------------------------o||
||--------------------------------|---------------------------------||
||--------------------------------|---------------------------------||
||o-2-2---2-----2-2---2-----2-2-0-|-3-3---3-----3-3---3-----3-3-0--o||
||--2-2---2---0-2-2---2---0-2-2-0-|-3-3---3---0-3-3---3---0-3-3-0---||


  E5                          D5  F5                          D5
  S S S S S S S S S S S S S S E   S S S S S S S S S S S S S S E
|-------------------------------|-------------------------------|
|-------------------------------|-------------------------------|
|-------------------------------|-------------------------------|
|-------------------------------|-------------------------------|
|-2-2-2---2-2-2---2-2-2---2-2-0-|-3-3-3---3-3-3---3-3-3---3-3-0-|
|-2-2-2---2-2-2---2-2-2---2-2-0-|-3-3-3---3-3-3---3-3-3---3-3-0-|


  E5                          D5  F5                          D5
                                                        PM--|
  S S S S S S S S S S S S S S E   S S S S S S S S S S S S S S E
|-------------------------------|-------------------------------|
|-------------------------------|-------------------------------|
|-------------------------------|-------------------------------|
|-------------------------------|-------------------------------|
|-2-2-2---2-2-2---2-2-2---2-2-0-|-3-3-3---3-3-3---3-3-3-------0-|
|-2-2-2---2-2-2---2-2-2---2-2-0-|-3-3-3---3-3-3---3-3-3-0-2-3-0-|


  E5                          D5  F5                           D5
  S S S S S S S S S S S S S S E    S S S S S S S S S S S S S S E
|-------------------------------|--------------------------------|
|-------------------------------|--------------------------------|
|-------------------------------|--------------------------------|
|-------------------------------|--------------------------------|
|-2-2-2---2-2-2---2-2-2---2-2-0-|--3-3-3---3-3-3---3-3-3---3-3-0-|
|-2-2-2---2-2-2---2-2-2---2-2-0-|--3-3-3---3-3-3---3-3-3---3-3-0-|
|
| Gtr II
| TP                               TP
| W                                W
|-------------------------------|--------------------------------|
|-------------------------------|--------------------------------|
|-9-----------------------------|-10-----------------------------|
|-x-----------------------------|--x-----------------------------|
|-7-----------------------------|--8-----------------------------|
|-------------------------------|--------------------------------|


  E5                           D5  F5                         A5
   S S S S S S S S S S S S S S E    S S S S S S S S S S S S S S E
|--------------------------------|--------------------------------|
|--------------------------------|--------------------------------|
|--------------------------------|--------------------------------|
|--------------------------------|--------------------------------|
|--2-2-2---2-2-2---2-2-2---2-2-0-|--3-3-3---3-3-3---3-3-3---3-7-7-|
|--2-2-2---2-2-2---2-2-2---2-2-0-|--3-3-3---3-3-3---3-3-3---3-7-7-|
|
|  TP                               TP
|  W                                W
|--------------------------------|--------------------------------|
|--------------------------------|--------------------------------|
|-16-----------------------------|-17-----------------------------|
|--x-----------------------------|--x-----------------------------|
|-14-----------------------------|-15-----------------------------|
|--------------------------------|--------------------------------|


    B5
     S  S  S  S  S  S  S  S  S  S  S  S  S  S  S  S
||--------------------------------------------------|
||o-------------------------------------------------|
||--11-11-11-11-11-11-11-11-11-11-11-11-11-11-11-11-|
||---9--9--9--9--9--9--9--9--9--9--9--9--9--9--9--9-|
||o--9--9--9--9--9--9--9--9--9--9--9--9--9--9--9--9-|
||---9--9--9--9--9--9--9--9--9--9--9--9--9--9--9--9-|


  Gmaj7sus4/C                         B5/F#
   S  S  S  S  S  S  S  S  S  S  S  S  S  S  S  S
|--------------------------------------------------|
|--------------------------------------------------|
|-11-11-11-11-11-11-11-11-11-11-11-11-11-11-11-11--|
|-10-10-10-10-10-10-10-10-10-10-10-10--9--9--9--9--|
|-10-10-10-10-10-10-10-10-10-10-10-10--9--9--9--9--|
|-10-10-10-10-10-10-10-10-10-10-10-10--------------|


  B5                                           D5
   S  S  S  S  S  S  S  S  S  S  S  S  S  S  S S
|------------------------------------------------|
|------------------------------------------------|
|-11-11-11-11-11-11-11-11-11-11-11-11-11-11-11---|
|--9--9--9--9--9--9--9--9--9--9--9--9--9--9--9---|
|--9--9--9--9--9--9--9--9--9--9--9--9--9--9--9-0-|
|--9--9--9--9--9--9--9--9--9--9--9--9--9--9--9-0-|


  G#5
  S S S S S S S S S S S S S S S S
|----------------------------------||
|---------------------------------o||
|-8-8-8-8-8-8-8-8-8-8-8-8-8-8-8-8--||
|-6-6-6-6-6-6-6-6-6-6-6-6-6-6-6-6--||
|-6-6-6-6-6-6-6-6-6-6-6-6-6-6-6-6-o||
|-6-6-6-6-6-6-6-6-6-6-6-6-6-6-6-6--||


 Interlude
  F5
   S  S  S  S  S  S  S  S  S  S  S  S  S  S  S  S
|-------------------------------------------------|
|-------------------------------------------------|
|-10-10-10-10-10-10-10-10-10-10-10-10-10-10-10-10-|
|-10-10-10-10-10-10-10-10-10-10-10-10-10-10-10-10-|
|--8--8--8--8--8--8--8--8--8--8--8--8--8--8--8--8-|
|-------------------------------------------------|


  Bb5/F
   S  S  S  S  S  S  S  S  S  S  S  S  S  S  S  S
|-------------------------------------------------|
|-------------------------------------------------|
|-10-10-10-10-10-10-10-10-10-10-10-10-10-10-10-10-|
|--8--8--8--8--8--8--8--8--8--8--8--8--8--8--8--8-|
|--8--8--8--8--8--8--8--8--8--8--8--8--8--8--8--8-|
|-------------------------------------------------|


  Bb5
   S  S  S  S  S  S  S  S  S  S  S  S  S  S  S  S
|-------------------------------------------------|
|-------------------------------------------------|
|-10-10-10-10-10-10-10-10-10-10-10-10-10-10-10-10-|
|--8--8--8--8--8--8--8--8--8--8--8--8--8--8--8--8-|
|--8--8--8--8--8--8--8--8--8--8--8--8--8--8--8--8-|
|--8--8--8--8--8--8--8--8--8--8--8--8--8--8--8--8-|


  Eb5/Bb
  S S S S S S S S S S S S S S S S
|---------------------------------|
|---------------------------------|
|---------------------------------|
|-8-8-8-8-8-8-8-8-8-8-8-8-8-8-8-8-|
|-6-6-6-6-6-6-6-6-6-6-6-6-6-6-6-6-|
|-8-8-8-8-8-8-8-8-8-8-8-8-8-8-8-8-|


   Outro
    F5
     S  S  S  S  S  S  S  S  S  S  S  S  S  S  S  S
||--------------------------------------------------|
||o-------------------------------------------------|
||--10-10-10-10-10-10-10-10-10-10-10-10-10-10-10-10-|
||--10-10-10-10-10-10-10-10-10-10-10-10-10-10-10-10-|
||o--8--8--8--8--8--8--8--8--8--8--8--8--8--8--8--8-|
||--------------------------------------------------|


  Bb5/F
   S  S  S  S  S  S  S  S  S  S  S  S  S  S  S  S
|--------------------------------------------------|
|--------------------------------------------------|
|-10-10-10-10-10-10-10-10-10-10-10-10-10-10-10-10--|
|--8--8--8--8--8--8--8--8--8--8--8--8--8--8--8--8--|
|--8--8--8--8--8--8--8--8--8--8--8--8--8--8--8--8--|
|--------------------------------------------------|


  Bb5
   S  S  S  S  S  S  S  S  S  S  S  S  S  S  S  S
|-------------------------------------------------|
|-------------------------------------------------|
|-10-10-10-10-10-10-10-10-10-10-10-10-10-10-10-10-|
|--8--8--8--8--8--8--8--8--8--8--8--8--8--8--8--8-|
|--8--8--8--8--8--8--8--8--8--8--8--8--8--8--8--8-|
|--8--8--8--8--8--8--8--8--8--8--8--8--8--8--8--8-|


  Eb5/Bb
  S S S S S S S S S S S S S S S S
|----------------------------------||
|---------------------------------o||
|----------------------------------||
|-8-8-8-8-8-8-8-8-8-8-8-8-8-8-8-8--||
|-6-6-6-6-6-6-6-6-6-6-6-6-6-6-6-6-o||
|-8-8-8-8-8-8-8-8-8-8-8-8-8-8-8-8--||


  F5
   S  S  S  S  S  S  S  S  S  S  S  S  E E
|------------------------------------------|
|------------------------------------------|
|-10-10-10-10-10-10-10-10-10-10-10-10-10---|
|-10-10-10-10-10-10-10-10-10-10-10-10-10---|
|--8--8--8--8--8--8--8--8--8--8--8--8--8---|
|------------------------------------------|


  F5
   S  S  S  S  S  S  S  S  S  S  S  S  E E
|------------------------------------------|
|------------------------------------------|
|-10-10-10-10-10-10-10-10-10-10-10-10-10---|
|-10-10-10-10-10-10-10-10-10-10-10-10-10---|
|--8--8--8--8--8--8--8--8--8--8--8--8--8---|
|------------------------------------------|


  F5/C                                       F5
   S  S  S  S  S  S  S  S  S  S  S  S  E E   S S S S S S S S S S S S E E
|------------------------------------------|-----------------------------*|
|------------------------------------------|-----------------------------*|
|------------------------------------------|-5-5-5-5-5-5-5-5-5-5-5-5-5---*|
|-10-10-10-10-10-10-10-10-10-10-10-10-10---|-3-3-3-3-3-3-3-3-3-3-3-3-3---*|
|--8--8--8--8--8--8--8--8--8--8--8--8--8---|-3-3-3-3-3-3-3-3-3-3-3-3-3---*|
|-10-10-10-10-10-10-10-10-10-10-10-10-10---|-3-3-3-3-3-3-3-3-3-3-3-3-3---*|




--------------------------------------------------------------------------------


Duration Legend
---------------
W - whole; H - half; Q - quarter; E - 8th; S - 16th; T - 32nd; X - 64th; a - acciaccatura
+ - note tied to previous; . - note dotted; .. - note double dotted
Uncapitalized letters represent notes that are staccato (1/2 duration)
Irregular groupings are notated above the duration line
Duration letters will always appear directly above the note/fret number it represents the
duration for.  Duration letters with no fret number below them represent rests.  Multi-
bar rests are notated in the form Wxn, where n is the number of bars to rest for.  Low
melody durations appear below the staff

Tablature Legend
----------------
 h   - hammer-on
 p   - pull-off
 b   - bend
 pb  - pre-bend
 r   - bend release (if no number after the r, then release immediately)
 /\  - slide into or out of (from/to "nowhere")
 s   - legato slide
 S   - shift slide
 - natural harmonic
[n]  - artificial harmonic
n(n) - tapped harmonic
 ~   - vibrato
 tr  - trill
 T   - tap
 TP  - trem. picking
 PM  - palm muting
\n/  - tremolo bar dip; n = amount to dip
 \n  - tremolo bar down
 n/  - tremolo bar up
/n\  - tremolo bar inverted dip
 =   - hold bend; also acts as connecting device for hammers/pulls
 <> - volume swell (louder/softer)
 x   - on rhythm slash represents muted slash
 o   - on rhythm slash represents single note slash

Misc Legend
-----------
 |  - bar
||  - double bar
||o - repeat start
o|| - repeat end
*|  - double bar (ending)
 :  - bar (freetime)
 $  - Segno
 &  - Coda
Tempo markers -  = BPM(8/16=s8/s16), where s8 = swing 8ths, s16 = swing 16ths


Tap to rate this tab
# A B C D E F G H I J K L M N O P Q R S T U V W X Y Z