Song name
# A B C D E F G H I J K L M N O P Q R S T U V W X Y Z

Papa Roach - Infest tab

Help us improve GuitareTab! Take a short survey!
#----------------------------------PLEASE NOTE---------------------------------#
#This file is the author's own work and represents their interpretation of the #
#song. You may only use this file for private study, scholarship, or research. #
#------------------------------------------------------------------------------##

                                     INFEST
                            As recorded by Papa Roach
                          (From the 2000 Album INFEST)

Words and Music by Papa Roach


Gtr I (D A D G B E) - 'Untitled'

 Intro
  Moderate Rock Q=97
               D5        A5   Csus4    A5        Bsus4  Gsus4
 4/4
               Gtr I
  W            S E. +Q   S E.  S  E.   S E. +Q   S E. S E.
|----------||------------------------|-----------------------||
|----------||o-----------------------|----------------------o||
|----------||------------9-9---------|-9-9--(9)--------------||
|----------||--0-0--(0)--7-7--10-10--|-7-7--(7)--9-9--5-5----||
|----------||o-0-0--(0)--7-7---8--8--|-7-7--(7)--7-7--3-3---o||
|----------||--0-0--(0)--7-7--10-10--|-7-7--(7)--9-9--5-5----||


    N.C.(Dm)                   (Am)
     PM--------------------------------------------
     S  S  S  S  S  S  S  S  S S  S S  S S S  S  3x
||-----------------------------------------------||
||o---------------------------------------------o||
||-----------------------------------------------||
||--------15----15-------15------10---10-----10--||
||o----------------12--------------------7------o||
||--12-12----12-------12----12-7----7------7-----||


  (Dm)                       (Am)
 -----------------------------------|
   S  S  S  S  S  S  S  S  S S  S S  E E
|-----------------------------------------|
|-----------------------------------------|
|-----------------------------------------|
|-------15----15-------15------10---10----|
|----------------12------------------7----|
|-12-12----12-------12----12-7----7--7----|


   Pre-Verse
    $
    D5    Dm    D5          Dm    D5   D5    Dm    D5          Dm D5
     S  S  E  E  S  S  S  S  E  E  E    S  S  E  E  S  S  S  S  E  S  S  E
||-----------------------------------|--------------------------------------||
||o----------------------------------|-------------------------------------o||
||-----------------------------------|--------------------------------------||
||--12-12-15-15-12-12-12-12-15-15-12-|-12-12-15-15-12-12-12-12-15-12-12-12--||
||o-12-12-12-12-12-12-12-12-12-12-12-|-12-12-12-12-12-12-12-12-12-12-12-12-o||
||--12-12-12-12-12-12-12-12-12-12-12-|-12-12-12-12-12-12-12-12-12-12-12-12--||


   Verses
    D5  Dm    D5      Dm    D5
    PM|       PM----|       PM-
    S S  E  E S S S S  E  E E
||----------------------------|
||o---------------------------|
||----------------------------|
||------15-15---------15-15---|
||o-0-0-12-12-0-0-0-0-12-12-0-|
||--0-0-12-12-0-0-0-0-12-12-0-|


 1.
      Dm    D5      Dm D5  Am
 ---|       PM----|             PM|       PM----|       PM
  S S  E  E S S S S  E S S  E   S S  E  E S S S S  E  E E
|-----------------------------|---------------------------|
|-----------------------------|---------------------------|
|---------------------------9-|---------------------------|
|-----15-15---------15-----10-|-----15-15---------15-15---|
|-0-0-12-12-0-0-0-0-12-0-0--0-|-0-0-12-12-0-0-0-0-12-12-0-|
|-0-0-12-12-0-0-0-0-12-0-0----|-0-0-12-12-0-0-0-0-12-12-0-|


                                 2.
  D5  Dm    D5      Dm     Dm     D5  Dm    D5      Dm D5
  PM|       PM----|    PM|        PM|       PM----|    PM|
  S S  E  E S S S S  E S S  E     S S  E  E S S S S  E S S E
|------------------------------||----------------------------|
|-----------------------------o||----------------------------|
|------------------------------||----------------------------|
|-----15-15---------15-----15--||-----15-15---------15-----0-|
|-0-0-12-12-0-0-0-0-12-0-0-12-o||-0-0-12-12-0-0-0-0-12-0-0-0-|
|-0-0-12-12-0-0-0-0-12-0-0-12--||-0-0-12-12-0-0-0-0-12-0-0-0-|


   Pre-Chorus
    A5              Asus2 Am                 A5              E5    F5
                                                             PM------------|
    S S S S S S S S S S S  S  S  S  S  S  3x S S S S S S S S S S S S S S S S
||----------------------------------------||----------------------------------|
||o--------------------------------------o||----------------------------------|
||--9-9-9-9-9-9-9-9-----------------------||-9-9-9-9-9-9-9-9------------------|
||--7-7-7-7-7-7-7-7-9-9-9-10-10-10-10-10--||-7-7-7-7-7-7-7-7-2-2-2-3-3-3-3-3--|
||o-7-7-7-7-7-7-7-7-7-7-7--7--7--7--7--7-o||-7-7-7-7-7-7-7-7-2-2-2-3-3-3-3-3--|
||--7-7-7-7-7-7-7-7-7-7-7--7--7--7--7--7--||-7-7-7-7-7-7-7-7-2-2-2-3-3-3-3-3--|


   Chorus
    $$
    D5  N.C.(F)     D5 N.C.(F)            D5  N.C.(F)     D5 N.C.(G) (F)(G)
    E E  S  S  S  S E.  S  +S   S  S  S   E E  S  S  S  S E.  S  +S   S  E
||--------------------------------------|-----------------------------------|
||o-------------------------------------|-----------------------------------|
||------10-10-10-10----10-(10)-10-10-10-|-----10-10-10-10----12-(12)-10s12\-|
||--0-0--x--x--x--x-----x-------x--x--x-|-0-0--x--x--x--x-----x-------x-----|
||o-0-0--8--8--8--8-0---8--(8)--8--8--8-|-0-0--8--8--8--8-0--10-(10)--8s10\-|
||--0-0-------------0-------------------|-0-0-------------0-----------------|


                                                              D.S.
                                                              D.S.
  A5  N.C.(C)     A5 F5                 A5  N.C.(C)     A5 N.C.((E(F)
  E E  S  S  S  S E.  S  +S   S  S  S   E E  S  S  S  S E.  S S E  S
|-------------------------------------|-------------------------------||
|-------------------------------------|------------------------------o||
|-------------------------------------|--------------------10---9-10--||
|-7-7-10-10-10-10-7--10-(10)-10-10-10-|-7-7-10-10-10-10-7---x---x--x--||
|-7-7--x--x--x--x-7--10-------x--x--x-|-7-7--x--x--x--x-7---8---7-10-o||
|-7-7-10-10-10-10-7--10-(10)-10-10-10-|-7-7-10-10-10-10-7-------------||


   Bridge
    N.C.(Dm)                   Am
     PM------------------------------------------
     S  S  S  S  S  S  S  S  S S  S S  S S S  S
||----------------------------------------------|
||o---------------------------------------------|
||----------------------------------------------|
||--------15----15-------15------10---10-----10-|
||o----------------12--------------------7------|
||--12-12----12-------12----12-7----7------7----|


 ------------------------------------------|
   S  S  S  S  S  S  S  S  S S  S S  S S S  S   6x
|-----------------------------------------------||
|----------------------------------------------o||
|-----------------------------------------------||
|-------15----15-------15------10---10-----10---||
|----------------12--------------------7-------o||
|-12-12----12-------12----12-7----7------7------||


                               D.S.S. al Coda
    D5        A5   Csus4    A5        Bsus4Gsus4
    S E. +Q   S E.  S  E.   S E. +Q   S E. S E.  4x
||------------------------|----------------------||
||o-----------------------|---------------------o||
||------------9-9---------|-9-9--(9)-------------||
||--0-0--(0)--7-7--10-10--|-7-7--(7)--9-9--5-5---||
||o-0-0--(0)--7-7---8--8--|-7-7--(7)--7-7--3-3--o||
||--0-0--(0)--7-7--10-10--|-7-7--(7)--9-9--5-5---||


     Outro
  &
      D5  N.C.(F)     D5  N.C.(F)
      E E  S  S  S  S E E  S  S  S  S   4x
|-||------------------------------------||
|-||o----------------------------------o||
|-||------10-10-10-10-----10-10-10-10---||
|-||--0-0--x--x--x--x-0-0--x--x--x--x---||
|-||o-0-0--8--8--8--8-0-0--8--8--8--8--o||
|-||--0-0-------------0-0---------------||


Duration Legend
---------------
W - whole; H - half; Q - quarter; E - 8th; S - 16th; T - 32nd; X - 64th; a - acciaccatura
+ - note tied to previous; . - note dotted; .. - note double dotted
Uncapitalized letters represent notes that are staccato (1/2 duration)
Irregular groupings are notated above the duration line
Duration letters will always appear directly above the note/fret number it represents the
duration for.  Duration letters with no fret number below them represent rests.  Multi-
bar rests are notated in the form Wxn, where n is the number of bars to rest for.  Low
melody durations appear below the staff

Tablature Legend
----------------
 h   - hammer-on
 p   - pull-off
 b   - bend
 pb  - pre-bend
 r   - bend release (if no number after the r, then release immediately)
 /\  - slide into or out of (from/to "nowhere")
 s   - legato slide
 S   - shift slide
  - natural harmonic
[n]  - artificial harmonic
n(n) - tapped harmonic
 ~   - vibrato
 tr  - trill
 T   - tap
 TP  - trem. picking
 PM  - palm muting
\n/  - tremolo bar dip; n = amount to dip
 \n  - tremolo bar down
 n/  - tremolo bar up
/n\  - tremolo bar inverted dip
 =   - hold bend; also acts as connecting device for hammers/pulls
 <>  - volume swell (louder/softer)
 x   - on rhythm slash represents muted slash
 o   - on rhythm slash represents single note slash

Misc Legend
-----------
 |  - bar
||  - double bar
||o - repeat start
o|| - repeat end
*|  - double bar (ending)
 :  - bar (freetime)
 $  - Segno
 &  - Coda
Tempo markers -  = BPM(8/16=s8/s16), where s8 = swing 8ths, s16 = swing 16ths


*
Related for Infest tab