Song name
# A B C D E F G H I J K L M N O P Q R S T U V W X Y Z

Papa Roach - I Almost Told You That I Loved You tab

This is the definitive guitar tablature for this song. Trust me, all the others 
lack the subtleties of the actual music.

Intro/Main Riff:

Guitar 1 (Rhythm)
e|---------------------------------------------------------------|
B|---------------------------------------------------------------|
G|---------------------------------------------------------------|
D|2-------------0-2-------------0-2-------------0-2-------2\-----|
A|2-------------0-2-------------0-2-------------0-2-------2\-----|
D|2-------------0-2-------------0-2-------------0-2-------2\-----|
  1&2&3&4 1&2&3&4 1&2&3&4 1&2&3&4 1&2&3&4 1&2&3&4 1&2&3&4 1&2&3&4

Guitar 2 (Lead)
E|---------------------------|
B|---------------------------|
G|0h2p0-0--0-3h4p3p0-2h3p2p0-|
D|-------2-------------------|
A|---------------------------|
E|---------------------------|X8   

Verse:

e|----------------------------|---------------------------|
B|----------------------------|---------------------------|
G|---9\-----9\-----9\-----10\-|----7\-----7\-----7\----10\|
D|----------------------------|---------------------------|
A|2xx7\-2xx-7\-2xx-7\-2222-8\-|0xx-5\-0xx-5\-0xx-5\-2xx-8\|
D|2xx---2xx----2xx----2222----|0xx----0xx----0xx----2xx---|

e|----------------------------|----------------------------|
B|----------------------------|----------------------------|
G|---9\-----9\-----9\-----10\-|----7\-----7\-----7\-10\-10\|
D|----------------------------|----------------------------|
A|2xx7\-2xx-7\-2xx-7\-2222-8\-|0xx-5\-0xx-5\-0xx-5\--8\--8\|
D|2xx---2xx----2xx----2222----|0xx----0xx----0xx-----------|

Chorus:

e|---------------------------|---------------------------|
B|---------------------------|---------------------------|
G|---------------5-5-5--5-5-5|---------------------------|
D|--2-2-2--2-2-2-5-5-5--5-5-5|5-5-5--5-5-5\-1-1-1--1-1-1-|
A|--2-2-2--2-2-2-3-3-3--3-3-3|5-5-5--5-5-5\-1-1-1--1-1-1-|
D|--2-2-2--2-2-2-------------|5-5-5--5-5-5\-1-1-1--1-1-1-|


e|-----------------------------|-----------------------------|
B|-----------------------------|-----------------------------|
G|---------------5-5-5--5-5-5-5|-----------------------------|
D|--2-2-2--2-2-2-5-5-5--5-5-5-5|5-5-5--5-5-5-5---------------|
A|--2-2-2--2-2-2-3-3-3--3-3-3-3|5-5-5--5-5-5-5---------------|
D|--2-2-2--2-2-2---------------|5-5-5--5-5-5-5-0-1~----------|x2

Verse:

e|---------------------------|
B|---------------------------|
G|---------------------------|
D|--2\-----------------------|
A|--2\-----------------------|
D|--2\-----------------------|Just Bass...

e|----------------------------|----------------------------|
B|----------------------------|----------------------------|
G|---9\-----9\-----9\-----10\-|----7\-----7\-----7\-10\-10\|
D|----------------------------|----------------------------|
A|2xx7\-2xx-7\-2xx-7\-2222-8\-|0xx-5\-0xx-5\-0xx-5\--8\--8\|
D|2xx---2xx----2xx----2222----|0xx----0xx----0xx-----------|

Chorus:

e|---------------------------|---------------------------|
B|---------------------------|---------------------------|
G|---------------5-5-5--5-5-5|---------------------------|
D|--2-2-2--2-2-2-5-5-5--5-5-5|5-5-5--5-5-5\-1-1-1--1-1-1-|
A|--2-2-2--2-2-2-3-3-3--3-3-3|5-5-5--5-5-5\-1-1-1--1-1-1-|
D|--2-2-2--2-2-2-------------|5-5-5--5-5-5\-1-1-1--1-1-1-|


e|-----------------------------|-----------------------------|
B|-----------------------------|-----------------------------|
G|---------------5-5-5--5-5-5-5|-----------------------------|
D|--2-2-2--2-2-2-5-5-5--5-5-5-5|5-5-5--5-5-5-5---------------|
A|--2-2-2--2-2-2-3-3-3--3-3-3-3|5-5-5--5-5-5-5---------------|
D|--2-2-2--2-2-2---------------|5-5-5--5-5-5-5-0-1~----------|x2

Bridge:

e|---------------------------|---------------------------|
B|---------------------------|---------------------------|
G|-----------------10\-------|-----------------10\-------|
D|--2-2-2-2------------------|-0-0-0-0-------------------|
A|--2-2-2-2----2-2--8\-------|-0-0-0-0----0-0xx-8\-------|
D|--2-2-2-2-X3-2-2-----------|-0-0-0-0-X3-0-0xx----------|

e|---------------------------|---------------------------|
B|---------------------------|---------------------------|
G|-------------------10\-----|------------------10\-10\--|
D|--2-2-2-2------------------|-0-0-0-0-----.-------------|
A|--2-2-2-2----2-2-2-8\------|-0-0-0-0-----0m----8\--8\--|
D|--2-2-2-2-X3-2-2-2---------|-0-0-0-0-X2--0m-X8---------|

Main Riff:

Guitar 1 (Rhythm)
e|---------------------------------------------------------------|
B|---------------------------------------------------------------|
G|---------------------------------------------------------------|
D|2-------------0-2-------------0-2-------------0-2-------2\-----|
A|2-------------0-2-------------0-2-------------0-2-------2\-----|
D|2-------------0-2-------------0-2-------------0-2-------2\-----|
  1&2&3&4 1&2&3&4 1&2&3&4 1&2&3&4 1&2&3&4 1&2&3&4 1&2&3&4 1&2&3&4

Guitar 2 (Lead)
E|---------------------------|
B|---------------------------|
G|0h2p0-0--0-3h4p3p0-2h3p2p0-|
D|-------2-------------------|
A|---------------------------|
E|---------------------------|X8  

Chorus:

e|---------------------------|---------------------------|
B|---------------------------|---------------------------|
G|---------------5-5-5--5-5-5|---------------------------|
D|--2-2-2--2-2-2-5-5-5--5-5-5|5-5-5--5-5-5\-1-1-1--1-1-1-|
A|--2-2-2--2-2-2-3-3-3--3-3-3|5-5-5--5-5-5\-1-1-1--1-1-1-|
D|--2-2-2--2-2-2-------------|5-5-5--5-5-5\-1-1-1--1-1-1-|


e|-----------------------------|-----------------------------|
B|-----------------------------|-----------------------------|
G|---------------5-5-5--5-5-5-5|-----------------------------|
D|--2-2-2--2-2-2-5-5-5--5-5-5-5|5-5-5--5-5-5-5---------------|
A|--2-2-2--2-2-2-3-3-3--3-3-3-3|5-5-5--5-5-5-5---------------|
D|--2-2-2--2-2-2---------------|5-5-5--5-5-5-5-0-1~----------|x4


Guitar 2 (Last Two Times):

e|--7-7-8-8-7-7-6-6-7-7-8-8--|7-7-5--6-------------------|
B|---8-8-8-8-8-8-8-8-8-8-8-8-|-8-8-----------------------|
G|---------------------------|---------------------------|
D|---------------------------|---------------------------|
A|---------------------------|---------------------------|
D|---------------------------|---------------------------|

e|--7-7-8-8-7-7-6-6-7-7-8-8--|7-7------------------------|
B|---8-8-8-8-8-8-8-8-8-8-8-8-|-8-8-----------------------|
G|---------------------------|---------------------------|
D|---------------------------|---------------------------|
A|---------------------------|-----------2\--------------|
D|---------------------------|-----0--1--2\--------------|
Tap to rate this tab
 
# A B C D E F G H I J K L M N O P Q R S T U V W X Y Z