Guitaretab - guitar tabs
Song name
# A B C D E F G H I J K L M N O P Q R S T U V W X Y Z

Papa Roach - Life Is A Bullet tab

Gtr I (Db Ab Db Gb Bb Eb) - 'Untitled'
Gtr II (Db Ab Db Gb Bb Eb) - 'Untitled'


 Intro
  Moderate Rock Q=130
  C#5        B                   C#5        C#          E
 4/4
  Gtr I
  E. E. E E   S  S  S  S  S  S   E. E. S S   S  S  S  S  S  S  S  S
|------------------------------|------------------------------------|
|------------------------------|------------------------------------|
|------------------------------|------------------------------------|
|------------------------------|------------------------------------|
|-0--0--0-0/-15-15-15-15-15-15-|-0--0--0-0/-17-17-17-17-------------|
|-0--0--0-0/-------------------|-0--0--0-0/-------------15-15-15-15-|


  C#5        B                   C#5        C#    E     C#    E
  E. E. E E   S  S  S  S  S  S   E. E. S S   S  S  S  S  S  S  S  S
|------------------------------|--------------------------------------|
|------------------------------|--------------------------------------|
|------------------------------|--------------------------------------|
|------------------------------|--------------------------------------|
|-0--0--0-0/-15-15-15-15-15-15-|-0--0--0-0/-17-17-20-20-17-17-20-20---|
|-0--0--0-0/-------------------|-0--0--0-0/---------------------------|


  C#5        B                   C#5        C#          E
  E. E. E E   S  S  S  S  S  S   E. E. S S   S  S  S  S  S  S  S  S
|------------------------------|------------------------------------|
|------------------------------|------------------------------------|
|------------------------------|------------------------------------|
|------------------------------|------------------------------------|
|-0--0--0-0/-15-15-15-15-15-15-|-0--0--0-0/-17-17-17-17-------------|
|-0--0--0-0/-------------------|-0--0--0-0/-------------15-15-15-15-|


  C#5        B           Eb            C#5
  E. E. S S   S  S  S  S  S  S  S  S   E. E. E H
|------------------------------------|--------------|
|------------------------------------|--------------|
|------------------------------------|--------------|
|------------------------------------|-0--0--0------|
|-0--0--0-0/-15-15-15-15-------------|-0--0--0------|
|-0--0--0-0/-------------14-14-14-14-|-0--0--0------|


 Pre-Verse
  C#5        B5
  E. E. E E   S  S  S  S  S  S
|------------------------------|
|------------------------------|
|------------------------------|
|-0--0--0-0/-10-10-10-10-10-10-|
|-0--0--0-0/-10-10-10-10-10-10-|
|-0--0--0-0/-10-10-10-10-10-10-|


  C#5        C#5         E5        C#5        B5
  E. E. S S   S  S  S  S S S S S   E. E. E E   S  S  S  S  S  S
|--------------------------------|-------------------------------|
|--------------------------------|-------------------------------|
|--------------------------------|-------------------------------|
|-0--0--0-0/-12-12-12-12-3-3-3-3-|-0--0--0-0/-10-10-10-10-10-10--|
|-0--0--0-0/-12-12-12-12-3-3-3-3-|-0--0--0-0/-10-10-10-10-10-10--|
|-0--0--0-0/-12-12-12-12-3-3-3-3-|-0--0--0-0/-10-10-10-10-10-10--|


  C#5        C#5   E5    C#5   E5
  E. E. S S   S  S  S  S  S  S  S  S
|------------------------------------|
|------------------------------------|
|------------------------------------|
|-0--0--0-0/-12-12-15-15-12-12-15-15-|
|-0--0--0-0/-12-12-15-15-12-12-15-15-|
|-0--0--0-0/-12-12-15-15-12-12-15-15-|


  C#5        B5                  C#5        C#5         E5
  E. E. E E   S  S  S  S  S  S   E. E. S S   S  S  S  S S S S S
|------------------------------|---------------------------------|
|------------------------------|---------------------------------|
|------------------------------|---------------------------------|
|-0--0--0-0/-10-10-10-10-10-10-|-0--0--0-0/-12-12-12-12-3-3-3-3--|
|-0--0--0-0/-10-10-10-10-10-10-|-0--0--0-0/-12-12-12-12-3-3-3-3--|
|-0--0--0-0/-10-10-10-10-10-10-|-0--0--0-0/-12-12-12-12-3-3-3-3--|


  C#5        B5          Eb5       C#5        C#5   E5    C#5   E5
  E. E. S S   S  S  S  S S S S S   E. E. S S   S  S  S  S  S  S  S  S
|--------------------------------|------------------------------------|
|--------------------------------|------------------------------------|
|--------------------------------|------------------------------------|
|-0--0--0-0/-10-10-10-10-2-2-2-2-|-0--0--0-0/-12-12-15-15-12-12-15-15-|
|-0--0--0-0/-10-10-10-10-2-2-2-2-|-0--0--0-0/-12-12-15-15-12-12-15-15-|
|-0--0--0-0/-10-10-10-10-2-2-2-2-|-0--0--0-0/-12-12-15-15-12-12-15-15-|


   Verses 1 and 2
    C#5        B5
    PM----------------------------
    E. E. E E   S  S  S  S  S  S
||-------------------------------|
||o------------------------------|
||-------------------------------|
||-------------------------------|
||o-0--0--0-0/-10-10-10-10-10-10-|
||--0--0--0-0/-10-10-10-10-10-10-|


  C#5        C#5         E5        C#5        B5
 ------------------------------------------------------------|
  E. E. S S   S  S  S  S S S S S   E. E. E E   S  S  S  S  S  S
|--------------------------------|------------------------------|
|--------------------------------|------------------------------|
|--------------------------------|------------------------------|
|--------------------------------|------------------------------|
|-0--0--0-0/-12-12-12-12-3-3-3-3-|-0--0--0-0/-10-10-10-10-10-10-|
|-0--0--0-0/-12-12-12-12-3-3-3-3-|-0--0--0-0/-10-10-10-10-10-10-|


  C#5        C#5   E5    C#5   E5
  PM----------------------------------
  E. E. S S   S  S  S  S  S  S  S  S
|------------------------------------|
|------------------------------------|
|------------------------------------|
|------------------------------------|
|-0--0--0-0/-12-12-15-15-12-12-15-15-|
|-0--0--0-0/-12-12-15-15-12-12-15-15-|


  C#5        B5                  C#5        C#5         E5
 -------------------------------------------------------------|
  E. E. E E   S  S  S  S  S  S   E. E. S S   S  S  S  S S S S S
|------------------------------|---------------------------------|
|------------------------------|---------------------------------|
|------------------------------|---------------------------------|
|------------------------------|---------------------------------|
|-0--0--0-0/-10-10-10-10-10-10-|-0--0--0-0/-12-12-12-12-3-3-3-3--|
|-0--0--0-0/-10-10-10-10-10-10-|-0--0--0-0/-12-12-12-12-3-3-3-3--|


  C#5        B5          Eb5       C#5        C#5   E5    C#5   E5
  PM---------------------------------------------------------------|
  E. E. S S   S  S  S  S S S S S   E. E. S S   S  S  S  S  S  S  S  S
|--------------------------------|------------------------------------|
|--------------------------------|------------------------------------|
|--------------------------------|------------------------------------|
|--------------------------------|------------------------------------|
|-0--0--0-0/-10-10-10-10-2-2-2-2-|-0--0--0-0/-12-12-15-15-12-12-15-15-|
|-0--0--0-0/-10-10-10-10-2-2-2-2-|-0--0--0-0/-12-12-15-15-12-12-15-15-|


 Pre-Chorus
  C#5       C#5       C#5
  E. E. S S Q  +Q     E. E. S S Q  +Q
|-------------------|-------------------|
|-------------------|-------------------|
|-----------7--(7)--|-----------7--(7)--|
|-0--0--0-0-7--(7)--|-0--0--0-0-7--(7)--|
|-0--0--0-0-5--(5)--|-0--0--0-0-5--(5)--|
|-0--0--0-0-0--(0)--|-0--0--0-0-0--(0)--|


  F#5       C#5/F#    A5        E5/A
  E. E. S S Q  +Q     E. E. S S  Q   +Q
|-------------------|---------------------|
|-------------------|---------------------|
|-------------------|---------------------|
|-5--5--5-5-7--(7)--|-8--8--8-8-10--(10)--|
|-5--5--5-5-5--(5)--|-8--8--8-8--8---(8)--|
|-5--5--5-5-5--(5)--|-8--8--8-8--8---(8)--|


                        Choruses 1 and 2
  B5         C#5         F#5       Eb E
   Q   Q   E  E  +Q      E. E. S S Q   Q
|---------------------||------------------|
|---------------------||------------------|
|---------------------||-----------9--10--|
|-10--10--10-12-(12)--||-5--5--5-5-x---x--|
|-10--10--10-12-(12)--||-5--5--5-5-7---8--|
|-10--10--10-12-(12)--||-5--5--5-5--------|


  G#5       Eb B5    A5        Eb E
  E. E. S S Q   Q    E. E. S S Q   Q
|------------------|------------------|
|------------------|------------------|
|-----------9------|-----------9--10--|
|-7--7--7-7-x--10--|-8--8--8-8-x---x--|
|-7--7--7-7-7--10--|-8--8--8-8-7---8--|
|-7--7--7-7----10--|-8--8--8-8--------|


  B5            Eb B5    F#5       Eb E
   E.  E.  S  S Q   Q    E. E. S S Q   Q
|----------------------|------------------|
|----------------------|------------------|
|---------------9------|-----------9--10--|
|-10--10--10-10-x--10--|-5--5--5-5-x---x--|
|-10--10--10-10-7--10--|-5--5--5-5-7---8--|
|-10--10--10-10----10--|-5--5--5-5--------|


            Eb B5              Eb E
  E. E. S S Q   Q    E. E. S S Q   Q
|------------------|------------------|
|------------------|------------------|
|-----------9------|-----------9--10--|
|-7--7--7-7-x--10--|-8--8--8-8-x---x--|
|-7--7--7-7-7--10--|-8--8--8-8-7---8--|
|-7--7--7-7----10--|-8--8--8-8--------|


                         Bridge
                          1.
  B5            Eb B5     C#5        B
   E.  E.  S  S Q   Q     E. E. E E   S  S  S  S  S  S
|----------------------||------------------------------|
|----------------------||------------------------------|
|---------------9------||------------------------------|
|-10--10--10-10-x--10--||------------------------------|
|-10--10--10-10-7--10--||-0--0--0-0/-15-15-15-15-15-15-|
|-10--10--10-10----10--||-0--0--0-0/-------------------|


  C#5        C#          E
  E. E. S S   S  S  S  S  S  S  S  S
|------------------------------------|
|------------------------------------|
|------------------------------------|
|------------------------------------|
|-0--0--0-0/-17-17-17-17-------------|
|-0--0--0-0/-------------15-15-15-15-|


  C#5        B                   C#5        C# E  C# E  C# E  C# E
  E. E. E E   S  S  S  S  S  S   E. E. S S   S  S  S  S  S  S  S  S
|------------------------------|-------------------------------------||
|------------------------------|------------------------------------o||
|------------------------------|-------------------------------------||
|------------------------------|-------------------------------------||
|-0--0--0-0/-15-15-15-15-15-15-|-0--0--0-0/-17-20-17-20-17-20-17-20-o||
|-0--0--0-0/-------------------|-0--0--0-0/--------------------------||

[ Tab from: http://www.guitaretab.com/p/papa-roach/30238.html ]
 Bridge
  2.
  C# E  G#Eb E  C#  C# E  G#Eb E  C#  C# E  G#Eb E  C#  C# E  G#Eb E  C#
  E. E. E E. E. E   E. E. E E. E. E   E. E. E E. E. E   E. E. E E. E. E
|-----------------|-----------------|-----------------|------------------|
|-----------------|-----------------|-----------------|------------------|
|-----------------|-----------------|-----------------|------------------|
|-----------------|-----------------|-----------------|------------------|
|----8----7--8--5-|----8----7--8--5-|----8----7--8--5-|----8----7--8--5--|
|-0-----7---------|-0-----7---------|-0-----7---------|-0-----7----------|


  C# E  G#Eb E  C#  C# E  G#Eb E  C#  C# E  G#Eb E  C#  C# E  G#Eb E  C#
  E. E. E E. E. E   E. E. E E. E. E   E. E. E E. E. E   E. E. E E. E. E
|-----------------|-----------------|-----------------|------------------|
|-----------------|-----------------|-----------------|------------------|
|-----------------|-----------------|-----------------|------------------|
|-----------------|-----------------|-----------------|------------------|
|----8----7--8--5-|----8----7--8--5-|----8----7--8--5-|----8----7--8--5--|
|-0-----7---------|-0-----7---------|-0-----7---------|-0-----7----------|


 Interlude
  A5         G#A5G#5    E5F#E5       C# E  G#Eb             EbF#  E   B
  W          S S Q  +E  S S Q  +E    E. E. E H      +E  S S E  Q   E. E.
|----------|-----------------------|--------------|-----------------------|
|----------|-----------------------|--------------|-----------------------|
|----------|-----------------------|---------9----|-(9)-x-x-9s12--10--5---|
|-8--------|-----------------------|-------7------|-----x-x-x-------------|
|-8--------|-7h8p7--(7)-3h5p3--(3)-|----8---------|-----x-x-7s10---8--3---|
|-8--------|-7h8p7--(7)-3h5p3--(3)-|-0------------|-----0-0---------------|


  C# E  G#E                   B5  B5      C# E  G#Eb
  E. E. E  H       +H     S S  E.  E.     E. E. E H      +W
|---------------|---------------------||---------------|--------|
|---------------|---------------------||o--------------|--------|
|---------10----|-(10)----x-x---------||----------9----|-(9)----|
|-------7-------|---------x-x-10--10--||--------7------|--------|
|----8----------|---------x-x-10--10--||o----8---------|--------|
|-0-------------|---------0-0-10--10--||--0------------|--------|


  C# E  G#E                        C# E  G#Eb
  E. E. E  H        +W          3x E. E. E H      +W
|----------------|--------------||--------------|---------------|
|----------------|-------------o||--------------|---------------|
|---------10-----|-(10)---------||---------9----|-(9)-----------|
|-------7--------|--------------||-------7------|---------------|
|----8-----------|-------------o||----8---------|---------------|
|-0--------------|--------------||-0------------|---------------|
|
| Gtr II
| W                  W          3x E. E. E H       E. E. E H
|----------------|--------------||--------------|---------------|
|----------------|-------------o||--------------|---------------|
|----------------|--------------||--------------|---------------|
|----------------|--------------||--------------|---------------|
|----------------|-------------o||-0--0--0-0----|--0--0--0-0----|
|----------------|--------------||-0--0--0-0----|--0--0--0-0----|


                                    Breakdown
  C# E  G#E                          F#5     C#      Eb      E
  E. E. E  H       +W                S S S S S S S S S S S S  S  S  S  S
|---------------|-----------------||-------------------------------------|
|---------------|-----------------||-------------------------------------|
|---------10----|-(10)------------||---------7-7-7-7-9-9-9-9-10-10-10-10-|
|-------7-------|-----------------||-5-5-5-5-x-x-x-x-x-x-x-x--x--x--x--x-|
|----8----------|-----------------||-5-5-5-5-5-5-5-5-7-7-7-7--8--8--8--8-|
|-0-------------|-----------------||-5-5-5-5-----------------------------|
|
| E. E. E  H        E. E. E H        W
|---------------|-----------------||-------------------------------------|
|---------------|-----------------||-------------------------------------|
|---------------|-----------------||-------------------------------------|
|---------------|-----------------||-------------------------------------|
|-0--0--0--0----|---0--0--0-0-----||-------------------------------------|
|-0--0--0--0----|---0--0--0-0-----||-------------------------------------|


  G#5     C#      Eb      E             A5      C#      Eb      E
  S S S S S S S S S S S S  S  S  S  S   S S S S S S S S S S S S  S  S  S  S
|-------------------------------------|-------------------------------------|
|-------------------------------------|-------------------------------------|
|---------7-7-7-7-9-9-9-9-10-10-10-10-|---------7-7-7-7-9-9-9-9-10-10-10-10-|
|-7-7-7-7-x-x-x-x-x-x-x-x--x--x--x--x-|-8-8-8-8-x-x-x-x-x-x-x-x--x--x--x--x-|
|-7-7-7-7-5-5-5-5-7-7-7-7--8--8--8--8-|-8-8-8-8-5-5-5-5-7-7-7-7--8--8--8--8-|
|-7-7-7-7-----------------------------|-8-8-8-8-----------------------------|


                                            Pre-Chorus
  B5          C#      Eb      E              C#5
   S  S  S  S S S S S S S S S  S  S  S  S    E. E. S S Q  +Q
|-----------------------------------------||-------------------|
|-----------------------------------------||-------------------|
|-------------7-7-7-7-9-9-9-9-10-10-10-10-||-----------7--(7)--|
|-10-10-10-10-x-x-x-x-x-x-x-x--x--x--x--x-||-0--0--0-0-7--(7)--|
|-10-10-10-10-5-5-5-5-7-7-7-7--8--8--8--8-||-0--0--0-0-5--(5)--|
|-10-10-10-10-----------------------------||-0--0--0-0-0--(0)--|


                      F#5       C#5/F#    A5        E5/A
  E. E. S S Q  +Q     E. E. S S Q  +Q     E. E. S S  Q   +Q
|-------------------|-------------------|-----------------------|
|-------------------|-------------------|-----------------------|
|-----------7--(7)--|-------------------|-----------------------|
|-0--0--0-0-7--(7)--|-5--5--5-5-7--(7)--|-8--8--8-8-10--(10)----|
|-0--0--0-0-5--(5)--|-5--5--5-5-5--(5)--|-8--8--8-8--8---(8)----|
|-0--0--0-0-0--(0)--|-5--5--5-5-5--(5)--|-8--8--8-8--8---(8)----|


  B5         C#5        C# E  G#Eb E  C#
   Q   Q   E  E  +Q     E. E. E E. E. E
|---------------------|-----------------|
|---------------------|-----------------|
|---------------------|-----------------|
|-10--10--10-12-(12)--|-----------------|
|-10--10--10-12-(12)--|----8----7--8--5-|
|-10--10--10-12-(12)--|-0-----7---------|


  C# E  G#Eb E  C#  C# E  G#Eb E  C#  C# E  G#Eb E  C#
  E. E. E E. E. E   E. E. E E. E. E   E. E. E E. E. E
|-----------------|-----------------|------------------|
|-----------------|-----------------|------------------|
|-----------------|-----------------|------------------|
|-----------------|-----------------|------------------|
|----8----7--8--5-|----8----7--8--5-|----8----7--8--5--|
|-0-----7---------|-0-----7---------|-0-----7----------|


                     Chorus 3
  C# E  G#Eb E  C#    F#5       Eb E     G#5       Eb B5    A5        Eb E
  E. E. E E. E. E     E. E. S S Q   Q    E. E. S S Q   Q    E. E. S S Q   Q
|-----------------||-------------------|------------------|------------------|
|-----------------||o------------------|------------------|------------------|
|-----------------||------------9--10--|-----------9------|-----------9--10--|
|-----------------||--5--5--5-5-x---x--|-7--7--7-7-x--10--|-8--8--8-8-x---x--|
|----8----7--8--5-||o-5--5--5-5-7---8--|-7--7--7-7-7--10--|-8--8--8-8-7---8--|
|-0-----7---------||--5--5--5-5--------|-7--7--7-7----10--|-8--8--8-8--------|


  B5            Eb B5      C#5             C#
                           PM------------|
   E.  E.  S  S Q   Q      S S S S S S S S S S S S S S S S
|-----------------------||---------------------------------|
|----------------------o||---------------------------------|
|---------------9-------||-----------------7-7-7-7-7-7-7-7-|
|-10--10--10-10-x--10---||-----------------x-x-x-x-x-x-x-x-|
|-10--10--10-10-7--10--o||-0-0-0-0-0-0-0-0-5-5-5-5-5-5-5-5-|
|-10--10--10-10----10---||-0-0-0-0-0-0-0-0-----------------|


  C#5             E                         F#5             C#
  PM------------|                           PM------------|
  S S S S S S S S  S  S  S  S  S  S  S  S   S S S S S S S S S S S S S S S S
|-----------------------------------------|---------------------------------|
|-----------------------------------------|---------------------------------|
|-----------------10-10-10-10-10-10-10-10-|-----------------7-7-7-7-7-7-7-7-|
|------------------x--x--x--x--x--x--x--x-|-----------------x-x-x-x-x-x-x-x-|
|-0-0-0-0-0-0-0-0--8--8--8--8--8--8--8--8-|-5-5-5-5-5-5-5-5-5-5-5-5-5-5-5-5-|
|-0-0-0-0-0-0-0-0-------------------------|-5-5-5-5-5-5-5-5-----------------|


  A5              E
  PM------------|
  S S S S S S S S  S  S  S  S  S  S  S  S
|-----------------------------------------|
|-----------------------------------------|
|-----------------10-10-10-10-10-10-10-10-|
|------------------x--x--x--x--x--x--x--x-|
|-8-8-8-8-8-8-8-8--8--8--8--8--8--8--8--8-|
|-8-8-8-8-8-8-8-8-------------------------|


  B5                      B                 C#5  C#5
   PM------------------|
   S  S  S  S  S  S  S  S S S S S S S S S    Q   Q  H
|-----------------------------------------|--------------*|
|-----------------------------------------|--------------*|
|-------------------------5-5-5-5-5-5-5-5-|--------------*|
|-------------------------x-x-x-x-x-x-x-x-|-12\--0-------*|
|-10-10-10-10-10-10-10-10-3-3-3-3-3-3-3-3-|-12\--0-------*|
|-10-10-10-10-10-10-10-10-----------------|-12\--0-------*|




--------------------------------------------------------------------------------


Duration Legend
---------------
W - whole; H - half; Q - quarter; E - 8th; S - 16th; T - 32nd; X - 64th; a - acciaccatura
+ - note tied to previous; . - note dotted; .. - note double dotted
Uncapitalized letters represent notes that are staccato (1/2 duration)
Irregular groupings are notated above the duration line
Duration letters will always appear directly above the note/fret number it represents the
duration for.  Duration letters with no fret number below them represent rests.  Multi-
bar rests are notated in the form Wxn, where n is the number of bars to rest for.  Low
melody durations appear below the staff

Tablature Legend
----------------
 h   - hammer-on
 p   - pull-off
 b   - bend
 pb  - pre-bend
 r   - bend release (if no number after the r, then release immediately)
 /\  - slide into or out of (from/to "nowhere")
 s   - legato slide
 S   - shift slide
 - natural harmonic
[n]  - artificial harmonic
n(n) - tapped harmonic
 ~   - vibrato
 tr  - trill
 T   - tap
 TP  - trem. picking
 PM  - palm muting
\n/  - tremolo bar dip; n = amount to dip
 \n  - tremolo bar down
 n/  - tremolo bar up
/n\  - tremolo bar inverted dip
 =   - hold bend; also acts as connecting device for hammers/pulls
 <> - volume swell (louder/softer)
 x   - on rhythm slash represents muted slash
 o   - on rhythm slash represents single note slash

Misc Legend
-----------
 |  - bar
||  - double bar
||o - repeat start
o|| - repeat end
*|  - double bar (ending)
 :  - bar (freetime)
 $  - Segno
 &  - Coda
Tempo markers -  = BPM(8/16=s8/s16), where s8 = swing 8ths, s16 = swing 16ths


Related for Life Is A Bullet tab
Advertisement will be closed in 10 seconds