Guitaretab - guitar tabs
Song name
# A B C D E F G H I J K L M N O P Q R S T U V W X Y Z

Papa Roach - Born With Nothing Die With Everything tab

Gtr I (C G C F A D) - 'Untitled'
Gtr II (C G C F A D) - 'Untitled'
Gtr III (C G C F A D) - 'Untitled'


 Intro
  Moderate Rock Q=99
  N.C.
 4/4
  Gtr I
   S  S  S  S  S  S  S  S  S E  S  S  S  S S
|--------------------------------------------|
|--------------------------------------------|
|--------------------------------------------|
|--------------------------------------------|
|-------12-12--------------------------------|
|-12-12-------12-12-12-15-15---15-10-10-10-0-|


   S  S  S  S  S  S  S  S  S E  S  S  S  S S
|---------------------------------------------|
|---------------------------------------------|
|---------------------------------------------|
|---------------------------------------------|
|-------12-12---------------------------------|
|-12-12-------12-12-12-15-15---15-10-10-10-0--|


  N.C.
  S S  S  S S S S S S E  S  S  S  S S   S S  S  S S S S S S S S S  S  S  S S
|-------------------------------------|---------------------------------------||
|-------------------------------------|---------------------------------------||
|-------------------------------------|---------------------------------------||
|-------------------------------------|---------------------------------------||
|-----12-12-------8-8-----------------|-----12-12-------8-8-8-8---------------||
|-8-8-------8-8-8-------15-10-10-10-0-|-8-8-------8-8-8---------0-10-10-10-0--||


  D5    A5    D5       F5         C5       D5
  Gtrs I, II
   S  S  S  S  S  S  S  S  S E  S  S  S  S S
|--------------------------------------------|
|--------------------------------------------|
|--------------------------------------------|
|-------14-14--------------------------------|
|-12-12-12-12-12-12-12-15-15---15-10-10-10-0-|
|-12-12-------12-12-12-15-15---15-10-10-10-0-|


        A5    D5       F5         C5       D5
   S  S  S  S  S  S  S  S  S E  S  S  S  S S
|--------------------------------------------|
|--------------------------------------------|
|--------------------------------------------|
|-------14-14--------------------------------|
|-12-12-12-12-12-12-12-15-15---15-10-10-10-0-|
|-12-12-------12-12-12-15-15---15-10-10-10-0-|


  Bb5 A5    Bb5   F5      D5 C5
  S S  S  S S S S  S  S E  S  S  S  S  S
|----------------------------------------|
|----------------------------------------|
|----------------------------------------|
|-----14-14-------10-10------------------|
|-8-8-12-12-8-8-8--8--8---12-10-10-10-10-|
|-8-8-------8-8-8---------12-10-10-10-10-|


  Bb5 A5    Bb5   F5          D5N.C.
  S S  S  S S S S  S  S  S  S S  S  S  S  S
|--------------------------------------------||
|--------------------------------------------||
|--------------------------------------------||
|-----14-14-------10-10-10-10---10-10-10-10--||
|-8-8-12-12-8-8-8--8--8--8--8-0--x--x--x--x--||
|-8-8-------8-8-8-------------0-10-10-10-10--||


   Verse
    D5    A5    D5       F5         C5       D5
     S  S  S  S  S  S  S  S  S E  S  S  S  S S
||---------------------------------------------|
||o--------------------------------------------|
||---------------------------------------------|
||--------14-14--------------------------------|
||o-12-12-12-12-12-12-12-15-15---15-10-10-10-0-|
||--12-12-------12-12-12-15-15---15-10-10-10-0-|


        A5    D5       F5         C5       D5
   S  S  S  S  S  S  S  S  S E  S  S  S  S S
|---------------------------------------------|
|---------------------------------------------|
|---------------------------------------------|
|-------14-14---------------------------------|
|-12-12-12-12-12-12-12-15-15---15-10-10-10-0--|
|-12-12-------12-12-12-15-15---15-10-10-10-0--|


  Bb5 A5    Bb5   F5      D5 C5
  S S  S  S S S S  S  S E  S  S  S  S  S
|----------------------------------------|
|----------------------------------------|
|----------------------------------------|
|-----14-14-------10-10------------------|
|-8-8-12-12-8-8-8--8--8---12-10-10-10-10-|
|-8-8-------8-8-8---------12-10-10-10-10-|


  Bb5 A5    Bb5   F5          D5N.C.
  S S  S  S S S S  S  S  S  S S  S  S  S  S
|---------------------------------------------||
|--------------------------------------------o||
|---------------------------------------------||
|-----14-14-------10-10-10-10---10-10-10-10---||
|-8-8-12-12-8-8-8--8--8--8--8-0--x--x--x--x--o||
|-8-8-------8-8-8-------------0-10-10-10-10---||


 Pre-Chorus
  D5          F5    D5      C5      D5
   S  S  S  S  S  S  S  S E  S  S E  S  S
|-----------------------------------------|
|-----------------------------------------|
|-----------------------------------------|
|-12-12-12-12-15-15-12-12---10-10---12-12-|
|-12-12-12-12-15-15-12-12---10-10---12-12-|
|-12-12-12-12-15-15-12-12---10-10---12-12-|


                    C5    D5    C5
  E  S  S E  S  S E  S  S  S  S  S  S
|--------------------------------------|
|--------------------------------------|
|--------------------------------------|
|---12-12---12-12---10-10-12-12-10-10--|
|---12-12---12-12---10-10-12-12-10-10--|
|---12-12---12-12---10-10-12-12-10-10--|


  Bbsus2        Bb         Bbsus2         A5  Bb5 A5D5F5G5  F5G5  F5G5
   S  S  S  S E  S  S E  S  S E  S  S   E S S S S S S S S S S S S S S
|-------------------------------------|-------------------------------||
|-------------------------------------|-------------------------------||
|-------------------------------------|-------------------------------||
|-10-10-10-10---12-12---12-10---10-10-|---7-7-8-8-7-0-3h5-5-3h5-5-3h5-||
|--8--8--8--8----8--8----8--8----8--8-|---7-7-8-8-7-0-3h5-5-3h5-5-3h5-||
|--8--8--8--8----8--8----8--8----8--8-|---7-7-8-8-7-0-3h5-5-3h5-5-3h5-||


   Chorus
    D5  N.C.
        PM      PM      PM
    E E S  S  S S  S  S S  S  S  S  S  S
||---------------------------------------|
||o--------------------------------------|
||---------------------------------------|
||--0-0----------------------------------|
||o-0-0----------------------------------|
||--0-0-0-17h19-0-15h17-0-14h15p14-10h14-|


  D5  N.C.
      PM      PM      PM
  E E S  S  S S  S  S S  S  S  S  S  S
|--------------------------------------|
|--------------------------------------|
|--------------------------------------|
|-0-0----------------------------------|
|-0-0----------------------------------|
|-0-0-0-17h19-0-15h17-0-14h15p14-10h14-|


  Bb5 N.C.
      PM      PM      PM
  E E S  S  S S  S  S S  S  S  S  S  S
|--------------------------------------|
|--------------------------------------|
|--------------------------------------|
|-8-8----------------------------------|
|-8-8----------------------------------|
|-8-8-0-17h19-0-15h17-0-14h15p14-10h14-|


  Bb5 N.C.
      PM      PM      PM
  E E S  S  S S  S  S S  S  S  S  S  S
|---------------------------------------||
|--------------------------------------o||
|---------------------------------------||
|-8-8-----------------------------------||
|-8-8----------------------------------o||
|-8-8-0-17h19-0-15h17-0-14h15p14-10h14--||


 Verse
  D5    A5    D5       F5      D5C5
   S  S  S  S  S  S  S  S  S E S  S  S  S  S
|--------------------------------------------|
|--------------------------------------------|
|--------------------------------------------|
|-------14-14--------------------------------|
|-12-12-12-12-12-12-12-15-15---0-10-10-10-10-|
|-12-12-------12-12-12-15-15---0-10-10-10-10-|


  D5    A5    D5       F5      D5C5
   S  S  S  S  S  S  S  S  S E S  S  S  S  S
|--------------------------------------------|
|--------------------------------------------|
|--------------------------------------------|
|-------14-14--------------------------------|
|-12-12-12-12-12-12-12-15-15---0-10-10-10-10-|
|-12-12-------12-12-12-15-15---0-10-10-10-10-|


  Bb5 A5    Bb5   F5      D5C5
  S S  S  S S S S  S  S E S  S  S  S  S
|---------------------------------------|
|---------------------------------------|
|---------------------------------------|
|-----14-14-------10-10-----------------|
|-8-8-12-12-8-8-8--8--8---0-10-10-10-10-|
|-8-8-------8-8-8---------0-10-10-10-10-|


  Bb5 A5    Bb5   F5          D5N.C.
  S S  S  S S S S  S  S  S  S S  S  S  S  S
|--------------------------------------------|
|--------------------------------------------|
|--------------------------------------------|
|-----14-14-------10-10-10-10---10-10-10-10--|
|-8-8-12-12-8-8-8--8--8--8--8-0--x--x--x--x--|
|-8-8-------8-8-8-------------0-10-10-10-10--|


  D5     A5    D5       F5      D5C5
  Gtrs I, II
   S   S  S  S  S  S  S  S  S E S  S  S  S  S
|---------------------------------------------|
|---------------------------------------------|
|---------------------------------------------|
|--------14-14--------------------------------|
|-12--12-12-12-12-12-12-15-15---0-10-10-10-10-|
|-12--12-------12-12-12-15-15---0-10-10-10-10-|
|
| Gtr III
|  H.                              Q
|---------------------------------------------|
|-15------------------------------17----------|
|---------------------------------------------|
|---------------------------------------------|
|---------------------------------------------|
|---------------------------------------------|


  D5    A5    D5       F5      D5C5
   S  S  S  S  S  S  S  S  S E S  S  S  S  S
|--------------------------------------------|
|--------------------------------------------|
|--------------------------------------------|
|-------14-14--------------------------------|
|-12-12-12-12-12-12-12-15-15---0-10-10-10-10-|
|-12-12-------12-12-12-15-15---0-10-10-10-10-|
|
|  H                       Q      Q
|--------------------------------------------|
|-18-----------------------------------------|
|-------------------------14-----17----------|
|--------------------------------------------|
|--------------------------------------------|
|--------------------------------------------|


  Bb5  A5    Bb5   F5      D5C5
   S S  S  S S S S  S  S E S  S  S  S  S
|----------------------------------------|
|----------------------------------------|
|----------------------------------------|
|------14-14-------10-10-----------------|
|--8-8-12-12-8-8-8--8--8---0-10-10-10-10-|
|--8-8-------8-8-8---------0-10-10-10-10-|
|
|  W
|----------------------------------------|
|----------------------------------------|
|-14-------------------------------------|
|----------------------------------------|
|----------------------------------------|
|----------------------------------------|


  Bb5    A5    Bb5   F5            D5N.C.
    S  S  S  S S S S  S   S   S  S S  S  S  S  S
|-------------------------------------------------||
|-------------------------------------------------||
|-------------------------------------------------||
|--------14-14-------10--10--10-10---10-10-10-10--||
|---8--8-12-12-8-8-8--8---8---8--8-0--x--x--x--x--||
|---8--8-------8-8-8---------------0-10-10-10-10--||
|
|   H                     H
|-------------------------------------------------||
|--15--------------------13-----------------------||
|-(14)------------------(14)----------------------||
|-------------------------------------------------||
|-------------------------------------------------||
|-------------------------------------------------||


 Pre-Chorus
  D5          F5    D5      C5      D5
  Gtrs I, II
   S  S  S  S  S  S  S  S E  S  S E  S  S
|-----------------------------------------|
|-----------------------------------------|
|-----------------------------------------|
|-12-12-12-12-15-15-12-12---10-10---12-12-|
|-12-12-12-12-15-15-12-12---10-10---12-12-|
|-12-12-12-12-15-15-12-12---10-10---12-12-|


                    C5    D5    C5
  E  S  S E  S  S E  S  S  S  S  S  S
|--------------------------------------|
|--------------------------------------|
|--------------------------------------|
|---12-12---12-12---10-10-12-12-10-10--|
|---12-12---12-12---10-10-12-12-10-10--|
|---12-12---12-12---10-10-12-12-10-10--|


  Bbsus2        Bb         Bbsus2         A5  Bb5 A5D5F5G5  F5G5  F5G5
   S  S  S  S E  S  S E  S  S E  S  S   E S S S S S S S S S S S S S S
|-------------------------------------|-------------------------------||
|-------------------------------------|-------------------------------||
|-------------------------------------|-------------------------------||
|-10-10-10-10---12-12---12-10---10-10-|---7-7-8-8-7-0-3h5-5-3h5-5-3h5-||
|--8--8--8--8----8--8----8--8----8--8-|---7-7-8-8-7-0-3h5-5-3h5-5-3h5-||
|--8--8--8--8----8--8----8--8----8--8-|---7-7-8-8-7-0-3h5-5-3h5-5-3h5-||


 Chorus
  D5  N.C.                               D5  N.C.
      PM      PM      PM                     PM      PM      PM
  E E S  S  S S  S  S S  S  S  S  S  S   E E S  S  S S  S  S S  S  S  S  S  S
|--------------------------------------|--------------------------------------|
|--------------------------------------|--------------------------------------|
|--------------------------------------|--------------------------------------|
|-0-0----------------------------------|-0-0----------------------------------|
|-0-0----------------------------------|-0-0----------------------------------|
|-0-0-0-17h19-0-15h17-0-14h15p14-10h14-|-0-0-0-17h19-0-15h17-0-14h15p14-10h14-|


  Bb5 N.C.                               Bb5 N.C.
      PM      PM      PM                     PM      PM      PM
  E E S  S  S S  S  S S  S  S  S  S  S   E E S  S  S S  S  S S  S  S  S  S  S
|--------------------------------------|--------------------------------------|
|--------------------------------------|--------------------------------------|
|--------------------------------------|--------------------------------------|
|-8-8----------------------------------|-8-8----------------------------------|
|-8-8----------------------------------|-8-8----------------------------------|
|-8-8-0-17h19-0-15h17-0-14h15p14-10h14-|-8-8-0-17h19-0-15h17-0-14h15p14-10h14-|


  D5  N.C.                               D5  N.C.
      PM      PM      PM                     PM      PM      PM
  E E S  S  S S  S  S S  S  S  S  S  S   E E S  S  S S  S  S S  S  S  S  S  S
|--------------------------------------|--------------------------------------|
|--------------------------------------|--------------------------------------|
|--------------------------------------|--------------------------------------|
|-0-0----------------------------------|-0-0----------------------------------|
|-0-0----------------------------------|-0-0----------------------------------|
|-0-0-0-17h19-0-15h17-0-14h15p14-10h14-|-0-0-0-17h19-0-15h17-0-14h15p14-10h14-|


  Bb5 N.C.                               Bb5 N.C.    D5F5    D5F5    D5F5
      PM      PM      PM                     PM
  E E S  S  S S  S  S S  S  S  S  S  S   E E S  S  S S S +S  S S +S  S S +S
|--------------------------------------|-------------------------------------||
|--------------------------------------|-------------------------------------||
|--------------------------------------|-------------------------------------||
|-8-8----------------------------------|-8-8---------0-3-(3)-0-3-(3)-0-3-(3)-||
|-8-8----------------------------------|-8-8---------0-3-(3)-0-3-(3)-0-3-(3)-||
|-8-8-0-17h19-0-15h17-0-14h15p14-10h14-|-8-8-0-17h19-0-3-(3)-0-3-(3)-0-3-(3)-||


   Interlude
    D5  N.C.    D5N.C.  D5G#5   Bb5         N.C.        D5N.C.  D5N.C.
    E E S S S S S  S  S S S S S S   +E  S S  S  S  S  S S  S  S S S S S S
||--------------------------------|---------------------------------------|
||o-------------------------------|---------------------------------------|
||------5-5-7-7---10-10-----------|---------12-14-12-10---10-10---9-9-9-9-|
||--0-0-x-x-x-x-0--x--x-0-6-6-6-8-|-(8)-8-8--x--x--x--x-0--x--x-0-x-x-x-x-|
||o-0-0-3-3-5-5-0--8--8-0-6-6-6-8-|-(8)-8-8-10-12-10--8-0--8--8-0-7-7-7-7-|
||--0-0---------0-------0-6-6-6-8-|-(8)-8-8-------------0-------0---------|

[ Tab from: http://www.guitaretab.com/p/papa-roach/30353.html ]
  1.
  D5  N.C.    D5N.C.  D5G#5   Bb5                 N.C.
  E E S S S S S  S  S S S S S S   +E  S S S S S S  S  S  S  S S S S S
|-------------------------------|--------------------------------------||
|-------------------------------|-------------------------------------o||
|-----5-5-7-7---10-10-----------|-----------------10-10-10-10-9-9-9-5--||
|-0-0-x-x-x-x-0--x--x-0-6-6-6-8-|-(8)-8-8-8-8-8-8--x--x--x--x-x-x-x-x--||
|-0-0-3-3-5-5-0--8--8-0-6-6-6-8-|-(8)-8-8-8-8-8-8--8--8--8--8-7-7-7-3-o||
|-0-0---------0-------0-6-6-6-8-|-(8)-8-8-8-8-8-8----------------------||


  2.
  D5  N.C.    D5N.C.  D5G#5   Bb5
  E E S S S S S  S  S S S S S S
|-------------------------------|
|-------------------------------|
|-----5-5-7-7---10-10-----------|
|-0-0-x-x-x-x-0--x--x-0-6-6-6-8-|
|-0-0-3-3-5-5-0--8--8-0-6-6-6-8-|
|-0-0---------0-------0-6-6-6-8-|


                  N.C.              D5
  +E  S S S S S S S S S S S S S S   E. E. E +H
|---------------------------------|----------------||
|---------------------------------|----------------||
|-----------------9-9-9-9-5-5-5-5-|----------------||
|-(8)-8-8-8-8-8-8-x-x-x-x-x-x-x-x-|-0--0--0-(0)----||
|-(8)-8-8-8-8-8-8-7-7-7-7-3-3-3-3-|-0--0--0-(0)----||
|-(8)-8-8-8-8-8-8-----------------|-0--0--0-(0)----||


   Bridge
    D5  N.C.
        PM      PM      PM
    E E S  S  S S  S  S S  S  S  S  S  S
||---------------------------------------|
||o--------------------------------------|
||---------------------------------------|
||---------------------------------------|
||o-0-0----------------------------------|
||--0-0-0-17h19-0-15h17-0-14h15p14-10h14-|


  D5  N.C.
      PM      PM      PM
  E E S  S  S S  S  S S  S  S  S  S  S
|--------------------------------------|
|--------------------------------------|
|--------------------------------------|
|--------------------------------------|
|-0-0----------------------------------|
|-0-0-0-17h19-0-15h17-0-14h15p14-10h14-|


  Bb5 N.C.
      PM      PM      PM
  E E S  S  S S  S  S S  S  S  S  S  S
|--------------------------------------|
|--------------------------------------|
|--------------------------------------|
|--------------------------------------|
|-8-8----------------------------------|
|-8-8-0-17h19-0-15h17-0-14h15p14-10h14-|


  Bb5 N.C.
      PM      PM      PM
  E E S  S  S S  S  S S  S  S  S  S  S
|---------------------------------------||
|--------------------------------------o||
|---------------------------------------||
|---------------------------------------||
|-8-8----------------------------------o||
|-8-8-0-17h19-0-15h17-0-14h15p14-10h14--||


   Breakdown
    D5  N.C.
    Gtr I
        PM      PM      PM
    E E S  S  S S  S  S S  S  S  S  S  S
||---------------------------------------|
||o--------------------------------------|
||---------------------------------------|
||---------------------------------------|
||o-0-0----------------------------------|
||--0-0-0-17h19-0-15h17-0-14h15p14-10h14-|


  D5  N.C.
      PM      PM      PM
  E E S  S  S S  S  S S  S  S  S  S  S
|--------------------------------------|
|--------------------------------------|
|--------------------------------------|
|--------------------------------------|
|-0-0----------------------------------|
|-0-0-0-17h19-0-15h17-0-14h15p14-10h14-|


  Bb5 N.C.
      PM      PM      PM
  E E S  S  S S  S  S S  S  S  S  S  S
|--------------------------------------|
|--------------------------------------|
|--------------------------------------|
|--------------------------------------|
|-8-8----------------------------------|
|-8-8-0-17h19-0-15h17-0-14h15p14-10h14-|


  Bb5 N.C.
      PM      PM      PM
  E E S  S  S S  S  S S  S  S  S  S  S
|---------------------------------------||
|--------------------------------------o||
|---------------------------------------||
|---------------------------------------||
|-8-8----------------------------------o||
|-8-8-0-17h19-0-15h17-0-14h15p14-10h14--||


  D5   N.C.
  Gtrs I, II
       PM      PM      PM
   E E S  S  S S  S  S S  S  S  S  S  S
|---------------------------------------|
|---------------------------------------|
|---------------------------------------|
|--0-0----------------------------------|
|--0-0----------------------------------|
|--0-0-0-17h19-0-15h17-0-14h15p14-10h14-|
|
| Gtr III
|  W
|---------------------------------------|
|-15------------------------------------|
|---------------------------------------|
|---------------------------------------|
|---------------------------------------|
|---------------------------------------|


  D5     N.C.
         PM      PM        PM
    E  E S  S  S S   S   S S  S  S  S  S  S
|-------------------------------------------|
|-------------------------------------------|
|-------------------------------------------|
|---0--0------------------------------------|
|---0--0------------------------------------|
|---0--0-0-17h19-0--15h=17-0-14h15p14-10h14-|
|
|  +H                H
|-------------------------------------------|
|-(15)-------------(15)---------------------|
|-------------------14\---------------------|
|-------------------------------------------|
|-------------------------------------------|
|-------------------------------------------|


  Bb5    N.C.
         PM      PM      PM
    E  E S  S  S S  S  S S  S  S  S  S  S
|-----------------------------------------|
|-----------------------------------------|
|-----------------------------------------|
|---8--8----------------------------------|
|---8--8----------------------------------|
|---8--8-0-17h19-0-15h17-0-14h15p14-10h14-|
|
|   W
|-----------------------------------------|
|-(15)------------------------------------|
|-----------------------------------------|
|--12-------------------------------------|
|-----------------------------------------|
|-----------------------------------------|


  Bb5    N.C.
         PM      PM
    E  E S  S  S S  S  S  S  S  S  S  S  S
|------------------------------------------||
|------------------------------------------||
|------------------17-17-17-17-17-17-17-17-||
|---8--8------------x--x--x--x--x--x--x--x-||
|---8--8-----------15-15-15-15-15-15-15-15-||
|---8--8-0-17h19-0-------------------------||
|
|  +W
|------------------------------------------||
|-(15)-------------------------------------||
|------------------------------------------||
|-(12)-------------------------------------||
|------------------------------------------||
|------------------------------------------||


   Chorus
    D5    N.C.
          PM      PM      PM
     E  E S  S  S S  S  S S  S  S  S  S  S
||-----------------------------------------|
||o----------------------------------------|
||-----------------------------------------|
||---0--0----------------------------------|
||o--0--0----------------------------------|
||---0--0-0-17h19-0-15h17-0-14h15p14-10h14-|
|
|    H.                         Q
||-----------------------------------------|
||o-15-------------------------17----------|
||-----------------------------------------|
||-----------------------------------------|
||o----------------------------------------|
||-----------------------------------------|


  D5   N.C.
       PM      PM      PM
   E E S  S  S S  S  S S  S  S  S  S  S
|---------------------------------------|
|---------------------------------------|
|---------------------------------------|
|--0-0----------------------------------|
|--0-0----------------------------------|
|--0-0-0-17h19-0-15h17-0-14h15p14-10h14-|
|
|  H              Q          Q
|---------------------------------------|
|-18------------------------------------|
|----------------14---------17----------|
|---------------------------------------|
|---------------------------------------|
|---------------------------------------|


  Bb5  N.C.
       PM      PM      PM
   E E S  S  S S  S  S S  S  S  S  S  S
|---------------------------------------|
|---------------------------------------|
|---------------------------------------|
|--8-8----------------------------------|
|--8-8----------------------------------|
|--8-8-0-17h19-0-15h17-0-14h15p14-10h14-|
|
|  W
|---------------------------------------|
|---------------------------------------|
|-14------------------------------------|
|---------------------------------------|
|---------------------------------------|
|---------------------------------------|


  Bb5    N.C.
         PM      PM
    E  E S  S  S S   S   S  S  S  S  S  S  S
|---------------------------------------------||
|--------------------------------------------o||
|-------------------17--17-17-17-17-17-17-17--||
|---8--8-------------x---x--x--x--x--x--x--x--||
|---8--8------------15--15-15-15-15-15-15-15-o||
|---8--8-0-17h19-0----------------------------||
|
|   H                H
|---------------------------------------------||
|--15---------------13-----------------------o||
|-(14)-------------(14)-----------------------||
|---------------------------------------------||
|--------------------------------------------o||
|---------------------------------------------||


 Outro
  D5
  Gtr I
            PM      PM      PM
   E    E   S  S  S S  S  S S  S  S  S  S  S
|--------------------------------------------|
|--------------------------------------------|
|--------------------------------------------|
|--------------------------------------------|
|--0----0------------------------------------|
|--0----0---0-17h19-0-15h17-0-14h15p14-10h14-|
|
| Gtr II
|         PM|     PM|     PM|     PM|
|  S  S S S S  S  S S  S  S S  S  S  S  S  S
|--------------------------------------------|
|--------------------------------------------|
|--------------------------------------------|
|--0--0-0------0-------0-------0--------0--0-|
|--0--0-0-0-0--0--0-0--0--0-0--0--0--0--0--0-|
|--0--0-0-0-0--0--0-0--0--0-0--0--0--0--0--0-|
|
| Gtr III
|  H.                             Q
|--------------------------------------------|
|-15-----------------------------17----------|
|--------------------------------------------|
|--------------------------------------------|
|--------------------------------------------|
|--------------------------------------------|


           PM      PM      PM
   E   E   S  S  S S  S  S S  S  S  S  S  S
|-------------------------------------------|
|-------------------------------------------|
|-------------------------------------------|
|-------------------------------------------|
|--0---0------------------------------------|
|--0---0---0-17h19-0-15h17-0-14h15p14-10h14-|
|
|        PM|     PM|     PM|     PM|
|  S S S S S  S  S S  S  S S  S  S  S  S  S
|-------------------------------------------|
|-------------------------------------------|
|-------------------------------------------|
|--0-0-0------0-------0-------0--------0--0-|
|--0-0-0-0-0--0--0-0--0--0-0--0--0--0--0--0-|
|--0-0-0-0-0--0--0-0--0--0-0--0--0--0--0--0-|
|
|  H                  Q          Q
|-------------------------------------------|
|-18----------------------------------------|
|--------------------14---------17----------|
|-------------------------------------------|
|-------------------------------------------|
|-------------------------------------------|


  Bb5
           PM      PM      PM
   E   E   S  S  S S  S  S S  S  S  S  S  S
|-------------------------------------------|
|-------------------------------------------|
|-------------------------------------------|
|-------------------------------------------|
|--8---8------------------------------------|
|--8---8---0-17h19-0-15h17-0-14h15p14-10h14-|
|
|        PM|     PM|     PM|     PM|
|  S S S S S  S  S S  S  S S  S  S  S  S  S
|-------------------------------------------|
|-------------------------------------------|
|-------------------------------------------|
|--8-8-8------8-------8-------8--------8--8-|
|--8-8-8-8-8--8--8-8--8--8-8--8--8--8--8--8-|
|--8-8-8-8-8--8--8-8--8--8-8--8--8--8--8--8-|
|
|  W
|-------------------------------------------|
|-------------------------------------------|
|-14----------------------------------------|
|-------------------------------------------|
|-------------------------------------------|
|-------------------------------------------|


             PM      PM
    E    E   S  S  S S   S   S  S  S  S  S  S  S
|------------------------------------------------|
|------------------------------------------------|
|-----------------------17--17-17-17-17-17-17-17-|
|------------------------x---x--x--x--x--x--x--x-|
|---8----8--------------15--15-15-15-15-15-15-15-|
|---8----8---0-17h19-0---------------------------|
|
|          PM|     PM|
|   S  S S S S  S  S S   S   S  S  S  S  S  S  S
|------------------------------------------------|
|------------------------------------------------|
|------------------------------------------------|
|---8--8-8------8-------10--10-10-10-10-10-10-10-|
|---8--8-8-8-8--8--8-8--10--10-10-10-10-10-10-10-|
|---8--8-8-8-8--8--8-8--10--10-10-10-10-10-10-10-|
|
|   H                    H
|------------------------------------------------|
|--15-------------------13-----------------------|
|-(14)-----------------(14)----------------------|
|------------------------------------------------|
|------------------------------------------------|
|------------------------------------------------|


  D5                                                                   N.C.
  Gtrs I, II
   E. E. E +H          E. E. E +H          E. E. E +H          E. E. E H
|------------------|-------------------|-------------------|----------------*|
|------------------|-------------------|-------------------|----------------*|
|------------------|-------------------|-------------------|----------------*|
|--0--0--0-(0)-----|---0--0--0-(0)-----|---0--0--0-(0)-----|---0--0--0------*|
|--0--0--0-(0)-----|---0--0--0-(0)-----|---0--0--0-(0)-----|---0--0--0------*|
|--0--0--0-(0)-----|---0--0--0-(0)-----|---0--0--0-(0)-----|---0--0--0------*|
|
| Gtr III
|  W                  +W                  +W                  +H       H
|------------------|-------------------|-------------------|----------------*|
|-15---------------|-(15)--------------|-(15)--------------|-(15)-----------*|
|------------------|-------------------|-------------------|----------------*|
|------------------|-------------------|-------------------|----------------*|
|------------------|-------------------|-------------------|----------------*|
|------------------|-------------------|-------------------|----------------*|




--------------------------------------------------------------------------------


Duration Legend
---------------
W - whole; H - half; Q - quarter; E - 8th; S - 16th; T - 32nd; X - 64th; a - acciaccatura
+ - note tied to previous; . - note dotted; .. - note double dotted
Uncapitalized letters represent notes that are staccato (1/2 duration)
Irregular groupings are notated above the duration line
Duration letters will always appear directly above the note/fret number it represents the
duration for.  Duration letters with no fret number below them represent rests.  Multi-
bar rests are notated in the form Wxn, where n is the number of bars to rest for.  Low
melody durations appear below the staff

Tablature Legend
----------------
 h   - hammer-on
 p   - pull-off
 b   - bend
 pb  - pre-bend
 r   - bend release (if no number after the r, then release immediately)
 /\  - slide into or out of (from/to "nowhere")
 s   - legato slide
 S   - shift slide
 - natural harmonic
[n]  - artificial harmonic
n(n) - tapped harmonic
 ~   - vibrato
 tr  - trill
 T   - tap
 TP  - trem. picking
 PM  - palm muting
\n/  - tremolo bar dip; n = amount to dip
 \n  - tremolo bar down
 n/  - tremolo bar up
/n\  - tremolo bar inverted dip
 =   - hold bend; also acts as connecting device for hammers/pulls
 <> - volume swell (louder/softer)
 x   - on rhythm slash represents muted slash
 o   - on rhythm slash represents single note slash

Misc Legend
-----------
 |  - bar
||  - double bar
||o - repeat start
o|| - repeat end
*|  - double bar (ending)
 :  - bar (freetime)
 $  - Segno
 &  - Coda
Tempo markers -  = BPM(8/16=s8/s16), where s8 = swing 8ths, s16 = swing 16ths

Related for Born With Nothing Die With Everything tab
×
Best way to learn
"Born With Nothing Die With Everything"