Song name
# A B C D E F G H I J K L M N O P Q R S T U V W X Y Z

Papa Roach - Even If I Could tab

Tuning:DADGBE

This is the new song by Papa Roach from the album Avengers Assemble!

Listen the song for the correct strumming ;)

Intro

e|-----------------------------------------|
B|-----------------------------------------|
G|-----------------------------------------|  x2
D|-0--0-0--0--0-0-0--0-0-0--000-0----------|
A|-0--0-0--0--0-0-0--0-0-0--000-0----------|
E|-0--0-0--0--0-0-0--0-0-0--000-0-3b-------|
      * *     * * *  * * *  ***

Verse

e|--------------------------------------------|
B|--------------------------------------------|
G|--------------------------------------------|
D|-0------0-----------0--3------3----------3--|
A|-0--0-0-0--0-0--0-0-0--3--3-3-3--3-3-3-3-3--|
E|-0--0-0-0--0-0--0-0-0--3--3-3-3--3-3-3-3-3--|
      * *    * *  * *       * *    * * * *

e|------------------------------------------------------|
B|------------------------------------------------------|
G|------------------------------------------------------|
D|-8------8-----------8--0------0----0---0---0---0-0-0--|
A|-8--8-8-8--8-8--8-8-8--0--0-0-0--0-0-0-0-0-0-0-0-0-0--|
E|-8--8-8-8--8-8--8-8-8--0--0-0-0--0-0-0-0-0-0-0-0-0-0--|
      * *    * *  * *       * *    *   *   *   *

Chorus

e|-----------------------------------------|
B|-----------------------------------------|
G|-----------------------------------------|
D|-3-3-3-3-3-3-3-3-3-3-3-3-3-3-5-5-5-5-----|
A|-3-3-3-3-3-3-3-3-3-3-3-3-3-3-5-5-5-5-----|
E|-1-1-1-1-1-1-1-1-1-1-1-1-1-1-3-3-3-3-----|


e|------------------------------------------------------------|
B|------------------------------------------------------------|
G|-------5-5--------8-8---------5-5--------8-8----------------|
D|-0---0-x-x--0---0-x-x---0---0-x-x--0---0-x-x----------------|
A|-0---0-3-3--0---0-6-6---0---0-3-3--0---0-6-6----------------|
E|-0---0------0---0-------0---0------0---0--------------------|


e|-----------------------------------------|
B|-----------------------------------------|
G|-----------------------------------------|
D|-3-3-3-3-3-3-3-3-3-3-3-3-3-3-5-5-5-5-----|
A|-3-3-3-3-3-3-3-3-3-3-3-3-3-3-5-5-5-5-----|
E|-1-1-1-1-1-1-1-1-1-1-1-1-1-1-3-3-3-3-----|

e|------------------------------------------------------------|
B|------------------------------------------------------------|
G|-------5-5--------8-8---------5-5--------8-8----------------|
D|-0---0-x-x--0---0-x-x---0---0-x-x--0---0-x-x----------------|
A|-0---0-3-3--0---0-6-6---0---0-3-3--0---0-6-6----------------|
E|-0---0------0---0-------0---0------0---0--------------------|

e|------------------------|
B|------------------------|
G|-------5-5--------8-8---|
D|-0---0-x-x--0---0-x-x---|
A|-0---0-3-3--0---0-6-6---|
E|-0---0------0---0-------|

Verse

e|--------------------------------------------|
B|--------------------------------------------|
G|--------------------------------------------|
D|-0------0-----------0--3------3----------3--|
A|-0--0-0-0--0-0--0-0-0--3--3-3-3--3-3-3-3-3--|
E|-0--0-0-0--0-0--0-0-0--3--3-3-3--3-3-3-3-3--|
      * *    * *  * *       * *    * * * *

e|------------------------------------------------------|
B|------------------------------------------------------|
G|------------------------------------------------------|
D|-8------8-----------8--0------0----0---0---0---0-0-0--|
A|-8--8-8-8--8-8--8-8-8--0--0-0-0--0-0-0-0-0-0-0-0-0-0--|
E|-8--8-8-8--8-8--8-8-8--0--0-0-0--0-0-0-0-0-0-0-0-0-0--|
      * *    * *  * *       * *    *   *   *   *

Chours

e|-----------------------------------------|
B|-----------------------------------------|
G|-----------------------------------------|
D|-3-3-3-3-3-3-3-3-3-3-3-3-3-3-5-5-5-5-----|
A|-3-3-3-3-3-3-3-3-3-3-3-3-3-3-5-5-5-5-----|
E|-1-1-1-1-1-1-1-1-1-1-1-1-1-1-3-3-3-3-----|


e|------------------------------------------------------------|
B|------------------------------------------------------------|
G|-------5-5--------8-8---------5-5--------8-8----------------|
D|-0---0-x-x--0---0-x-x---0---0-x-x--0---0-x-x----------------|
A|-0---0-3-3--0---0-6-6---0---0-3-3--0---0-6-6----------------|
E|-0---0------0---0-------0---0------0---0--------------------|


e|-----------------------------------------|
B|-----------------------------------------|
G|-----------------------------------------|
D|-3-3-3-3-3-3-3-3-3-3-3-3-3-3-5-5-5-5-----|
A|-3-3-3-3-3-3-3-3-3-3-3-3-3-3-5-5-5-5-----|
E|-1-1-1-1-1-1-1-1-1-1-1-1-1-1-3-3-3-3-----|

e|------------------------------------------------------------|
B|------------------------------------------------------------|
G|-------5-5--------8-8---------5-5--------8-8----------------|
D|-0---0-x-x--0---0-x-x---0---0-x-x--0---0-x-x----------------|
A|-0---0-3-3--0---0-6-6---0---0-3-3--0---0-6-6----------------|
E|-0---0------0---0-------0---0------0---0--------------------|


e|------------------------------------------------------------|
B|------------------------------------------------------------|
G|-------5-5--------8-8---------5-5--------8-8----------------|
D|-0---0-x-x--0---0-x-x---0---0-x-x--0---0-x-x----------------|
A|-0---0-3-3--0---0-6-6---0---0-3-3--0---0-6-6----------------|
E|-0---0------0---0-------0---0------0---0--------------------|

Bridge

e|--------------------|
B|--------------------|
G|--------------------|
D|-8----7--6--0-------|  x2
A|-8----7--6--0-------|
E|-8----7--6--0-------|

Chorus

e|-----------------------------------------|
B|-----------------------------------------|
G|-----------------------------------------|
D|-3-3-3-3-3-3-3-3-3-3-3-3-3-3-5-5-5-5-----|
A|-3-3-3-3-3-3-3-3-3-3-3-3-3-3-5-5-5-5-----|
E|-1-1-1-1-1-1-1-1-1-1-1-1-1-1-3-3-3-3-----|


e|------------------------------------------------------------|
B|------------------------------------------------------------|
G|-------5-5--------8-8---------5-5--------8-8----------------|
D|-0---0-x-x--0---0-x-x---0---0-x-x--0---0-x-x----------------|
A|-0---0-3-3--0---0-6-6---0---0-3-3--0---0-6-6----------------|
E|-0---0------0---0-------0---0------0---0--------------------|


e|-----------------------------------------|
B|-----------------------------------------|
G|-----------------------------------------|
D|-3-3-3-3-3-3-3-3-3-3-3-3-3-3-5-5-5-5-----|
A|-3-3-3-3-3-3-3-3-3-3-3-3-3-3-5-5-5-5-----|
E|-1-1-1-1-1-1-1-1-1-1-1-1-1-1-3-3-3-3-----|

e|------------------------------------------------------------|
B|------------------------------------------------------------|
G|-------5-5--------8-8---------5-5--------8-8----------------|
D|-0---0-x-x--0---0-x-x---0---0-x-x--0---0-x-x----------------|
A|-0---0-3-3--0---0-6-6---0---0-3-3--0---0-6-6----------------|
E|-0---0------0---0-------0---0------0---0--------------------|


e|------------------------------------------------------------|
B|------------------------------------------------------------|
G|-------5-5--------8-8---------5-5--------8-8----------------|
D|-0---0-x-x--0---0-x-x---0---0-x-x--0---0-x-x----------------|
A|-0---0-3-3--0---0-6-6---0---0-3-3--0---0-6-6----------------|
E|-0---0------0---0-------0---0------0---0--------------------|

End

e|--------------------------------|     |-----|
B|--------------------------------|     |-----|
G|-----14------13---10------7-----| x4  |-----|
D|-0--0----0--0----0----0--0------|     |--0~-|
A|-0--0----0--0----0----0--0------|     |--0~-|
E|-0--0----0--0----0----0--0------|     |--0~-|
Tap to rate this tab
 
# A B C D E F G H I J K L M N O P Q R S T U V W X Y Z