Song name
# A B C D E F G H I J K L M N O P Q R S T U V W X Y Z

Papa Roach - Still Swingin tab

Tuning: Drop Db

Intro

|------------------------------------------------------------------|
|------------------------------------------------------------------|
|-----7-7-7-5-7---------------------10-10-10-9-10--10-----9--------|
|-0-0-x-x-x-x-x--0-0-----3-5----0-0-x--x--x--x-x---x--x8--x-x8-----|
|-0-0-5-5-5-3-5--0-0-3-5-----5--0-0-8--8--8--7-8---8------7--------|
|-0-0------------0-0------------0-0--------------------------------|

|------------------------------------------------------------------|
|------------------------------------------------------------------|
|-----7-7-7-5-7---------------------10-10-10-9-10--8------7--------|
|-0-0-x-x-x-x-x--0-0-----3-5----0-0-x--x--x--x-x---x--x8--x-x8-----|
|-0-0-5-5-5-3-5--0-0-3-5-----5--0-0-8--8--8--7-8---6------5--------|
|-0-0------------0-0------------0-0--------------------------------|

Verse

|------------------------------------------------------------|
|------------------------------------------------------------|
|----------------------------10-----9------------------------|
|---------------3-5----------x--x8--x-x8---------------------|
|-----------3-5-----5--------8------7------------------------|
|-0-0---0-0------------0-0-----------------------------------|


|------------------------------------------------------------|
|------------------------------------------------------------|
|----------------------------8------7------------------------|
|---------------3-5----------x--x8--x-x8---------------------|
|-----------3-5-----5--------6------5------------------------|
|-0-0---0-0------------0-0-----------------------------------|

|------------------------------------------------------------|
|------------------------------------------------------------|
|----------------------------10-----9------------------------|
|---------------3-5----------x--x8--x-x8---------------------|
|-----------3-5-----5--------8------7------------------------|
|-0-0---0-0------------0-0-----------------------------------|

|------------------------------------------------------------|
|------------------------------------------------------------|
|------------------------------------------------------------|
|---------------3-5------------------------------------------|
|-----------3-5-----5----------------------------------------|
|-0-0---0-0------------0-0-----12/////////////////////0------|

Chorus

|-----------------------------------------------|
|-----------------------------------------------|
|(5)----(2)----(10)---(12)----------------------|
|-3------0------8------10-----------------------|
|-3-x16--0-x16--8-x16--10-x16-------------------|
|-3------0------8------10-----------------------|

|-----------------------------------------------------------------|
|-----------------------------------------------------------------|
|(5)----(2)----(10)---(12)----------------------------------------|
|-3------0------8------10-----------------------------------------|
|-3-x16--0-x16--8-x16--10-x8---we-are-the-one's-still-swingin!----|
|-3------0------8------10-----------------------------------------|

Riff intro

|------------------------------------------------------------------|
|------------------------------------------------------------------|
|-----7-7-7-5-7---------------------10-10-10-9-10--8------7--------|
|-0-0-x-x-x-x-x--0-0-----3-5----0-0-x--x--x--x-x---x--x8--x-x8-----|
|-0-0-5-5-5-3-5--0-0-3-5-----5--0-0-8--8--8--7-8---6------5--------|
|-0-0------------0-0------------0-0--------------------------------|

Verse

|------------------------------------------------------------|
|------------------------------------------------------------|
|----------------------------10-----9------------------------|
|----------------------------x--x8--x-x8---------------------|
|----------------------------8------7------------------------|
|------------------------------------------------------------|


|------------------------------------------------------------|
|------------------------------------------------------------|
|----------------------------8------7------------------------|
|---------------3-5----------x--x8--x-x8---------------------|
|-----------3-5-----5--------6------5------------------------|
|-0-0---0-0------------0-0-----------------------------------|

|------------------------------------------------------------|
|------------------------------------------------------------|
|----------------------------10-----9------------------------|
|---------------3-5----------x--x8--x-x8---------------------|
|-----------3-5-----5--------8------7------------------------|
|-0-0---0-0------------0-0-----------------------------------|

|------------------------------------------------------------|
|------------------------------------------------------------|
|------------------------------------------------------------|
|---------------3-5------------------------------------------|
|-----------3-5-----5----------------------------------------|
|-0-0---0-0------------0-0-----12/////////////////////0------|

Chorus

|----------------------------------------------|
|----------------------------------------------|
|(5)----(2)----(10)---(12)---------------------|
|-3------0------8------10----------------------|
|-3-x16--0-x16--8-x16--10-x16------------------|
|-3------0------8------10----------------------|

|-----------------------------------------------------------------|
|-----------------------------------------------------------------|
|-(5)----(2)----(10)---(12)---------------------------------------|
|-3------0------8------10-----------------------------------------|
|-3-x16--0-x16--8-x16--10-x8---we-are-the-one's-still-swingin!----|
|-3------0------8------10-----------------------------------------|

Bridge
(only effect)

Chorus

|----------------------------------------------|
|----------------------------------------------|
|(5)-----(2)-----(10)----(12)------------------|
|-3~------0~------8~------10~------------------|
|-3~------0~------8~------10~------------------|
|-3~------0~------8~------10~------------------|

|-----------------------------------------------------------------|
|-----------------------------------------------------------------|
|(5)----(2)----(10)---(12)----------------------------------------|
|-3------0------8------10-----------------------------------------|
|-3-x16--0-x16--8-x16--10-x8---we-are-the-one's-still-swingin!----|
|-3------0------8------10-----------------------------------------|

End with the main riff

|------------------------------------------------------------------|
|------------------------------------------------------------------|
|-----7-7-7-5-7---------------------10-10-10-9-10--10-----9--------|
|-0-0-x-x-x-x-x--0-0-----3-5----0-0-x--x--x--x-x---x--x8--x-x8-----|
|-0-0-5-5-5-3-5--0-0-3-5-----5--0-0-8--8--8--7-8---8------7--------|
|-0-0------------0-0------------0-0--------------------------------|

|------------------------------------------------------------------|
|------------------------------------------------------------------|
|-----7-7-7-5-7---------------------10-10-10-9-10--8------7--------|
|-0-0-x-x-x-x-x--0-0-----3-5----0-0-x--x--x--x-x---x--x8--x-x8-----|
|-0-0-5-5-5-3-5--0-0-3-5-----5--0-0-8--8--8--7-8---6------5--------|
|-0-0------------0-0------------0-0--------------------------------|
Tap to rate this tab
# A B C D E F G H I J K L M N O P Q R S T U V W X Y Z