Song name
# A B C D E F G H I J K L M N O P Q R S T U V W X Y Z

Papa Roach - Roses On My Grave tab

-------------------------------------------------------------------------------
Roses on my grave Ė Papa Roach
-------------------------------------------------------------------------------
Tabbed by: Alex Jones ;)
E-mail: alexej_01@hotmail.com

Tuning: Standard Ė Iíve tabbed it for standard although if you want the octave change 
you would need to redo this in drop D I reckon!

Intro: (Alot of distortion and feedback on these notes, itís down to alot of production 
I imagine so itís not that important for the music! Not sure theyíre entirely right!)

e|------------------------------------------------|
B|------------------------------------------------|
G|----------7-------------------------------------|
D|-----7------------15-------14-------------------|
A|------------------------------------------------|
E|------------------------------------------------|


Main strings part(Verse) : (I like to play this as power chords palm muted to make it 
sound similar)
e|------------------------------------------|
B|------------------------------------------|
G|------------------------------------------|
D|---7----10----9----7----10--12---7--------|
A|---7----10----9----7----10--12---7--------|
E|---5----8-----7----5----8---10---5--------|
Basically the verse just is a mix of these two variations depending on the vocal line. 
Itís quite easy to work out and sounds ok whichever you use because of the string 
harmonies in the song!


Chorus: (The strings play this an octave up but on a guitar that would be a bit rubbish 
so just similar power chords to the verse with little hammer ons and pull offs if you 
want them)
e|-----------------------------------------------|
B|-----------------------------------------------|
G|-----------------------------------------------|
D|---10---9---------7----------3-----5----7------|
A|---10---9---------7-----X2---3-----5----7ó-----|
E|---8----7ó7h8p7---5----------1-----3----5------|

Please forgive me (Iíd play these quiter/gentler or if you have a bassist just let him 
do the root notes on his bass as itís much lower on strings)
e|-----------------------------------|
B|-----------------------------------|
G|-----------------------------------|
D|---10---9----7---------------------|
A|---10---9----7---------------------|
E|---8----7----5---------------------|

ITíS MY REDEMPTION! And the last bit just change the dynamics a bit with the same chords 
I think!
e|------------------------------|
B|------------------------------|
G|------------------------------|
D|---9----10---12---------------|
A|---9----10---12-------X8------|
E|---7----8----10---------------|


This is my first tab, and hector93gw requested it on the forums 4 years ago and I 
thought Iíd give it a bash as itís an awesome song!
Tap to rate this tab
# A B C D E F G H I J K L M N O P Q R S T U V W X Y Z