Song name
# A B C D E F G H I J K L M N O P Q R S T U V W X Y Z

Papa Roach - Singular Indestructible Droid tab

Gtr I (C G C F A D) - 'Untitled'
Gtr II (C G C F A D) - 'Untitled'
Gtr III (C G C F A D) - 'Untitled'
Gtr IV (C G C F A D) - 'Untitled'


 Intro
  Q=163
 4/4
  Gtr I
  Wx4
|--------|
|--------|
|--------|
|--------|
|--------|
|--------|


  N.C.
  Gtr I
  <
  E E E E E E E E   E E E E E E E E     E E E E E E E E   E E E E E E E E  7x
|-----------------|-----------------||------------------|------------------||
|-----------------|-----------------||o-----------------|-----------------o||
|-9-9-9-9-9-9-9-9-|-9-9-9-9-9-9-9-9-||--9-9-9-9-9-9-9-9-|-9-9-9-9-9-9-9-9--||
|-----------------|-----------------||------------------|------------------||
|-7-7-7-7-7-7-7-7-|-7-7-7-7-7-7-7-7-||o-7-7-7-7-7-7-7-7-|-7-7-7-7-7-7-7-7-o||
|-----------------|-----------------||------------------|------------------||


   E  E E  E  E E E E   E E E E E E  E E
|---------------------|------------------|
|---------------------|------------------|
|--9--9-9--9--9-9-9-9-|-9-9-9-9-9-9--9-9-|
|---------------------|------------------|
|--7--7-7--7--7-7-7-7-|-7-7-7-7-7-7--7-7-|
|---------------------|------------------|
|
| Gtr II
|  E  Q    E  E Q   E   E Q   E E Q.
|---------------------|------------------|
|---------------------|------------------|
|-12-11---11-11-9---9-|-9-7---7-7-9------|
|---------------------|------------------|
|-10--9----9--9-7---7-|-7-5---5-5-7------|
|---------------------|------------------|
|
| Gtr III
|  W                    W
|---------------------|------------------|
|---------------------|------------------|
|---------------------|------------------|
|---------------------|------------------|
|---------------------|------------------|
|---------------------|------------------|


   E  E E  E  E E E E   E E E E E E  E E
|---------------------|------------------|
|---------------------|------------------|
|--9--9-9--9--9-9-9-9-|-9-9-9-9-9-9--9-9-|
|---------------------|------------------|
|--7--7-7--7--7-7-7-7-|-7-7-7-7-7-7--7-7-|
|---------------------|------------------|
|
|  W                    W
|---------------------|------------------|
|---------------------|------------------|
|---------------------|------------------|
|---------------------|------------------|
|---------------------|------------------|
|---------------------|------------------|
|
|  E  Q    E  E Q   E   E Q   E E Q.
|---------------------|------------------|
|---------------------|------------------|
|-12-11---11-11-9---9-|-9-7---7-7-9------|
|---------------------|------------------|
|-10--9----9--9-7---7-|-7-5---5-5-7------|
|---------------------|------------------|


   E  E E  E  E E E E   E E E E E E  E E
|---------------------|------------------|
|---------------------|------------------|
|--9--9-9--9--9-9-9-9-|-9-9-9-9-9-9--9-9-|
|---------------------|------------------|
|--7--7-7--7--7-7-7-7-|-7-7-7-7-7-7--7-7-|
|---------------------|------------------|
|
|  E  Q    E  E Q   E   E Q   E E Q.
|---------------------|------------------|
|---------------------|------------------|
|-12-11---11-11-9---9-|-9-7---7-7-9------|
|---------------------|------------------|
|-10--9----9--9-7---7-|-7-5---5-5-7------|
|---------------------|------------------|
|
|  W                    W
|---------------------|------------------|
|---------------------|------------------|
|---------------------|------------------|
|---------------------|------------------|
|---------------------|------------------|
|---------------------|------------------|


                                Gtr IV
   E  E E  E  E E E E   E E E E E E E E
|---------------------|-----------------|
|---------------------|-----------------|
|--9--9-9--9--9-9-9-9-|-9-9-9-9---------|
|---------------------|---------x-x-x-x-|
|--7--7-7--7--7-7-7-7-|-7-7-7-7-x-x-x-x-|
|---------------------|---------x-x-x-x-|
|
|                             Gtr IV
|  W                    H       E E E E
|---------------------|-----------------|
|---------------------|-----------------|
|---------------------|-----------------|
|---------------------|---------x-x-x-x-|
|---------------------|---------x-x-x-x-|
|---------------------|---------x-x-x-x-|
|
|                             Gtr IV
|  E  Q    E  E Q   E   E Q   E E E E E
|---------------------|-----------------|
|---------------------|-----------------|
|-12-11---11-11-9---9-|-9-7-------------|
|---------------------|---------x-x-x-x-|
|-10--9----9--9-7---7-|-7-5-----x-x-x-x-|
|---------------------|---------x-x-x-x-|


  D5E5   G5E5     G5F#D5A5F#G5        D5E5   G5E5     G5F#D5A5F#B5
  Gtr IV
  E Q.   E Q.     E E E E E E +Q      E Q.   E Q.     E E E E E E +Q
|---------------|-------------------|---------------|-------------------|
|---------------|-------------------|---------------|-------------------|
|---------------|-------------------|---------------|-------------------|
|-0-2----5-2----|-5-4-0-7-4-5-(5)\--|-0-2----5-2----|-5-4-0-7-4-9-(9)\--|
|-0-2----5-2----|-5-4-0-7-4-5-(5)\--|-0-2----5-2----|-5-4-0-7-4-9-(9)\--|
|-0-2----5-2----|-5-4-0-7-4-5-(5)\--|-0-2----5-2----|-5-4-0-7-4-9-(9)\--|


  D5E5   G5E5     G5F#D5A5F#G5        D5E5   G5E5     D5E5
  E Q.   E Q.     E E E E E E +Q      E Q.   E Q.     E Q.   E E E E
|---------------|-------------------|---------------|----------------|
|---------------|-------------------|---------------|----------------|
|---------------|-------------------|---------------|----------------|
|-0-2----5-2----|-5-4-0-7-4-5-(5)\--|-0-2----5-2----|-0-2----x-x-x-x-|
|-0-2----5-2----|-5-4-0-7-4-5-(5)\--|-0-2----5-2----|-0-2----x-x-x-x-|
|-0-2----5-2----|-5-4-0-7-4-5-(5)\--|-0-2----5-2----|-0-2----x-x-x-x-|


   Verse
    D5E5                      D5  E5D5
        PM--------|       PM--------|
    E E E E E E E E   E E E E E E E E
||------------------|-----------------|
||o-----------------|-----------------|
||------------------|-----------------|
||--0-2-------------|-----------------|
||o-0-2-2-2-2-2-2-2-|-2-2-2-2-0-0-2-0-|
||--0-2-2-2-2-2-2-2-|-2-2-2-2-0-0-2-0-|


  G5                        F#5 G5F#5
  E E E E E E E E   E E E E E E E E
|-----------------|-----------------|
|-----------------|-----------------|
|-----------------|-----------------|
|-----------------|-----------------|
|-5-5-5-5-5-5-5-5-|-5-5-5-5-4-4-5-4-|
|-5-5-5-5-5-5-5-5-|-5-5-5-5-4-4-5-4-|


  D5E5                      D5  E5D5
      PM--------|       PM--------|
  E E E E E E E E   E E E E E E E E
|-----------------|-----------------|
|-----------------|-----------------|
|-----------------|-----------------|
|-0-2-------------|-----------------|
|-0-2-2-2-2-2-2-2-|-2-2-2-2-0-0-2-0-|
|-0-2-2-2-2-2-2-2-|-2-2-2-2-0-0-2-0-|


  F5                C5/F
  E E E E E E E E   E E E E E E E E
|-----------------|------------------||
|-----------------|-----------------o||
|-----------------|------------------||
|-----------------|-5-5-5-5-5-5-5-5--||
|-3-3-3-3-3-3-3-3-|-3-3-3-3-3-3-3-3-o||
|-3-3-3-3-3-3-3-3-|-3-3-3-3-3-3-3-3--||


   Pre-Chorus
    G5A5            B5             C5                D5
    E Q  E H      E Q  E  H      E  Q   E  H       E  Q   E  Q.    +E
||--------------|--------------|----------------|-------------------------||
||o-------------|--------------|----------------|------------------------o||
||---------9----|--------11----|----------12----|-----------14----(14)\---||
||--5-7--7-7----|-7-9--9--9----|-9-10--10-10----|-10-12--12-12----(12)\---||
||o-5-7--7-7----|-7-9--9--9----|-9-10--10-10----|-10-12--12-12----(12)\--o||
||--5-7--7-7----|-7-9--9--9----|-9-10--10-10----|-10-12--12-12----(12)\---||


 Chorus
  D5E5   G5E5     G5F#D5A5F#G5        D5E5   G5E5     G5F#D5A5F#B5
  E Q.   E Q.     E E E E E E +Q      E Q.   E Q.     E E E E E E +Q
|---------------|-------------------|---------------|-------------------|
|---------------|-------------------|---------------|-------------------|
|---------------|-------------------|---------------|-------------------|
|-0-2----5-2----|-5-4-0-7-4-5-(5)\--|-0-2----5-2----|-5-4-0-7-4-9-(9)\--|
|-0-2----5-2----|-5-4-0-7-4-5-(5)\--|-0-2----5-2----|-5-4-0-7-4-9-(9)\--|
|-0-2----5-2----|-5-4-0-7-4-5-(5)\--|-0-2----5-2----|-5-4-0-7-4-9-(9)\--|


  D5E5   G5E5     G5F#D5A5F#G5        D5E5   G5E5     D5E5
  E Q.   E Q.     E E E E E E +Q      E Q.   E Q.     E Q.   E E E E
|---------------|-------------------|---------------|----------------|
|---------------|-------------------|---------------|----------------|
|---------------|-------------------|---------------|----------------|
|-0-2----5-2----|-5-4-0-7-4-5-(5)\--|-0-2----5-2----|-0-2----x-x-x-x-|
|-0-2----5-2----|-5-4-0-7-4-5-(5)\--|-0-2----5-2----|-0-2----x-x-x-x-|
|-0-2----5-2----|-5-4-0-7-4-5-(5)\--|-0-2----5-2----|-0-2----x-x-x-x-|


   Verse
    D5E5                      D5  E5D5
        PM--------|       PM--------|
    E E E E E E E E   E E E E E E E E
||------------------|-----------------|
||o-----------------|-----------------|
||------------------|-----------------|
||--0-2-------------|-----------------|
||o-0-2-2-2-2-2-2-2-|-2-2-2-2-0-0-2-0-|
||--0-2-2-2-2-2-2-2-|-2-2-2-2-0-0-2-0-|


  G5                        F#5 G5F#5
  E E E E E E E E   E E E E E E E E
|-----------------|-----------------|
|-----------------|-----------------|
|-----------------|-----------------|
|-----------------|-----------------|
|-5-5-5-5-5-5-5-5-|-5-5-5-5-4-4-5-4-|
|-5-5-5-5-5-5-5-5-|-5-5-5-5-4-4-5-4-|


  D5E5                      D5  E5D5
      PM--------|       PM--------|
  E E E E E E E E   E E E E E E E E
|-----------------|-----------------|
|-----------------|-----------------|
|-----------------|-----------------|
|-0-2-------------|-----------------|
|-0-2-2-2-2-2-2-2-|-2-2-2-2-0-0-2-0-|
|-0-2-2-2-2-2-2-2-|-2-2-2-2-0-0-2-0-|


  F5                C5/F
  E E E E E E E E   E E E E E E E E
|-----------------|------------------||
|-----------------|-----------------o||
|-----------------|------------------||
|-----------------|-5-5-5-5-5-5-5-5--||
|-3-3-3-3-3-3-3-3-|-3-3-3-3-3-3-3-3-o||
|-3-3-3-3-3-3-3-3-|-3-3-3-3-3-3-3-3--||


   Pre-Chorus
    G5A5            B5             C5                D5
    E Q  E H      E Q  E  H      E  Q   E  H       E  Q   E  Q.    +E
||--------------|--------------|----------------|-------------------------||
||o-------------|--------------|----------------|------------------------o||
||---------9----|--------11----|----------12----|-----------14----(14)\---||
||--5-7--7-7----|-7-9--9--9----|-9-10--10-10----|-10-12--12-12----(12)\---||
||o-5-7--7-7----|-7-9--9--9----|-9-10--10-10----|-10-12--12-12----(12)\--o||
||--5-7--7-7----|-7-9--9--9----|-9-10--10-10----|-10-12--12-12----(12)\---||


   Chorus
    D5E5   G5E5     G5F#D5A5F#G5        D5E5   G5E5     G5F#D5A5F#B5
    E Q.   E Q.     E E E E E E +Q      E Q.   E Q.     E E E E E E +Q
||----------------|-------------------|---------------|--------------------|
||o---------------|-------------------|---------------|--------------------|
||----------------|-------------------|---------------|--------------------|
||--0-2----5-2----|-5-4-0-7-4-5-(5)\--|-0-2----5-2----|-5-4-0-7-4-9-(9)\---|
||o-0-2----5-2----|-5-4-0-7-4-5-(5)\--|-0-2----5-2----|-5-4-0-7-4-9-(9)\---|
||--0-2----5-2----|-5-4-0-7-4-5-(5)\--|-0-2----5-2----|-5-4-0-7-4-9-(9)\---|


  D5E5   G5E5     G5F#D5A5F#G5        D5E5   G5E5     D5E5
  E Q.   E Q.     E E E E E E +Q      E Q.   E Q.     E Q.   E E E E
|---------------|-------------------|---------------|-----------------||
|---------------|-------------------|---------------|----------------o||
|---------------|-------------------|---------------|-----------------||
|-0-2----5-2----|-5-4-0-7-4-5-(5)\--|-0-2----5-2----|-0-2----x-x-x-x--||
|-0-2----5-2----|-5-4-0-7-4-5-(5)\--|-0-2----5-2----|-0-2----x-x-x-x-o||
|-0-2----5-2----|-5-4-0-7-4-5-(5)\--|-0-2----5-2----|-0-2----x-x-x-x--||


   Interlude
    N.C.
    Gtr I
    E E E E E E E E   E E E E E E E E   E E E E E E E E   E E E E E E E E
||------------------|-----------------|-----------------|-------------------||
||o-----------------|-----------------|-----------------|------------------o||
||--9-9-9-9-9-9-9-9-|-9-9-9-9-9-9-9-9-|-9-9-9-9-9-9-9-9-|-9-9-9-9-9-9-9-9---||
||------------------|-----------------|-----------------|-------------------||
||o-7-7-7-7-7-7-7-7-|-7-7-7-7-7-7-7-7-|-7-7-7-7-7-7-7-7-|-7-7-7-7-7-7-7-7--o||
||------------------|-----------------|-----------------|-------------------||


   Bridge
    D5E5D5G5 E5 B5
    Gtr IV
    E E E Q  Q  E   +W            W                    W
||----------------|------------|---------------------|-------------------|
||o---------------|------------|---------------------|-------------------|
||--------------4-|-(4)--------|---------------------|-------------------|
||--0-2-0-5--2--4-|-(4)--------|---------------------|-------------------|
||o-0-2-0-5--2--2-|-(2)--------|---------------------|-------------------|
||--0-2-0-5--2----|------------|---------------------|-------------------|
|
|   Gtr I
|   W                W            E  E E  E  E E E E   E E E E E E  E E
||----------------|------------|---------------------|-------------------|
||o---------------|------------|---------------------|-------------------|
||----------------|------------|--9--9-9--9--9-9-9-9-|-9-9-9-9-9-9--9-9--|
||----------------|------------|---------------------|-------------------|
||o---------------|------------|--7--7-7--7--7-7-7-7-|-7-7-7-7-7-7--7-7--|
||----------------|------------|---------------------|-------------------|
|
|   Gtr II
|   W                W            E  Q    E  E Q   E   E Q   E E Q.
||----------------|------------|---------------------|-------------------|
||o---------------|------------|---------------------|-------------------|
||----------------|------------|-12-11---11-11-9---9-|-9-7---7-7-9-------|
||----------------|------------|---------------------|-------------------|
||o---------------|------------|-10--9----9--9-7---7-|-7-5---5-5-7-------|
||----------------|------------|---------------------|-------------------|


  D5E5D5G5 E5 F5       C5/F
  E E E Q  Q  E   +Q   H.         W                    W
|---------------|--------------|---------------------|-------------------||
|---------------|--------------|---------------------|------------------o||
|---------------|--------------|---------------------|-------------------||
|-0-2-0-5--2--3-|-(3)--5-------|---------------------|-------------------||
|-0-2-0-5--2--3-|-(3)--3-------|---------------------|------------------o||
|-0-2-0-5--2--3-|-(3)--3-------|---------------------|-------------------||
|
| W                W              E  E E  E  E E E E   E E E E E E  E E
|---------------|--------------|---------------------|-------------------||
|---------------|--------------|---------------------|------------------o||
|---------------|--------------|--9--9-9--9--9-9-9-9-|-9-9-9-9-9-9--9-9--||
|---------------|--------------|---------------------|-------------------||
|---------------|--------------|--7--7-7--7--7-7-7-7-|-7-7-7-7-7-7--7-7-o||
|---------------|--------------|---------------------|-------------------||
|
| W                W              E  Q    E  E Q   E   E Q   E E Q.
|---------------|--------------|---------------------|-------------------||
|---------------|--------------|---------------------|------------------o||
|---------------|--------------|-12-11---11-11-9---9-|-9-7---7-7-9-------||
|---------------|--------------|---------------------|-------------------||
|---------------|--------------|-10--9----9--9-7---7-|-7-5---5-5-7------o||
|---------------|--------------|---------------------|-------------------||


  D5E5   D5E5     D5E5   D5E5
  Gtr IV
  E Q.   E Q.     E Q.   E Q.
|---------------|---------------|
|---------------|---------------|
|---------------|---------------|
|-0-2----0-2----|-0-2----0-2----|
|-0-2----0-2----|-0-2----0-2----|
|-0-2----0-2----|-0-2----0-2----|


   Chorus
    D5E5   G5E5     G5F#D5A5F#G5        D5E5   G5E5     G5F#D5A5F#B5
    E Q.   E Q.     E E E E E E +Q      E Q.   E Q.     E E E E E E +Q
||----------------|-------------------|---------------|--------------------|
||o---------------|-------------------|---------------|--------------------|
||----------------|-------------------|---------------|--------------------|
||--0-2----5-2----|-5-4-0-7-4-5-(5)\--|-0-2----5-2----|-5-4-0-7-4-9-(9)\---|
||o-0-2----5-2----|-5-4-0-7-4-5-(5)\--|-0-2----5-2----|-5-4-0-7-4-9-(9)\---|
||--0-2----5-2----|-5-4-0-7-4-5-(5)\--|-0-2----5-2----|-5-4-0-7-4-9-(9)\---|


  D5E5   G5E5     G5F#D5A5F#G5        D5E5   G5E5     D5E5
  E Q.   E Q.     E E E E E E +Q      E Q.   E Q.     E Q.   E E E E
|---------------|-------------------|---------------|-----------------||
|---------------|-------------------|---------------|----------------o||
|---------------|-------------------|---------------|-----------------||
|-0-2----5-2----|-5-4-0-7-4-5-(5)\--|-0-2----5-2----|-0-2----x-x-x-x--||
|-0-2----5-2----|-5-4-0-7-4-5-(5)\--|-0-2----5-2----|-0-2----x-x-x-x-o||
|-0-2----5-2----|-5-4-0-7-4-5-(5)\--|-0-2----5-2----|-0-2----x-x-x-x--||


 Outro
  D5E5   D5E5     D5E5   D5E5
  E Q.   E Q.     E Q.   E Q.
|---------------|---------------|
|---------------|---------------|
|---------------|---------------|
|-0-2----0-2----|-0-2----0-2----|
|-0-2----0-2----|-0-2----0-2----|
|-0-2----0-2----|-0-2----0-2----|


  D5E5   D5E5     D5E5   D5E5
  E Q.   E Q.     E Q.   E Q.
|---------------|---------------*|
|---------------|---------------*|
|---------------|---------------*|
|-0-2----0-2----|-0-2----0-2\---*|
|-0-2----0-2----|-0-2----0-2\---*|
|-0-2----0-2----|-0-2----0-2\---*|
|
| Gtr II
| E Q.   E Q.     E Q.   E Q.
|---------------|---------------*|
|---------------|---------------*|
|-7-9----7-9----|-7-9----7-9\---*|
|-x-x----x-x----|-x-x----x-x----*|
|-5-7----5-7----|-5-7----5-7\---*|
|---------------|---------------*|




--------------------------------------------------------------------------------


Duration Legend
---------------
W - whole; H - half; Q - quarter; E - 8th; S - 16th; T - 32nd; X - 64th; a - acciaccatura
+ - note tied to previous; . - note dotted; .. - note double dotted
Uncapitalized letters represent notes that are staccato (1/2 duration)
Irregular groupings are notated above the duration line
Duration letters will always appear directly above the note/fret number it represents the
duration for.  Duration letters with no fret number below them represent rests.  Multi-
bar rests are notated in the form Wxn, where n is the number of bars to rest for.  Low
melody durations appear below the staff

Tablature Legend
----------------
 h   - hammer-on
 p   - pull-off
 b   - bend
 pb  - pre-bend
 r   - bend release (if no number after the r, then release immediately)
 /\  - slide into or out of (from/to "nowhere")
 s   - legato slide
 S   - shift slide
 - natural harmonic
[n]  - artificial harmonic
n(n) - tapped harmonic
 ~   - vibrato
 tr  - trill
 T   - tap
 TP  - trem. picking
 PM  - palm muting
\n/  - tremolo bar dip; n = amount to dip
 \n  - tremolo bar down
 n/  - tremolo bar up
/n\  - tremolo bar inverted dip
 =   - hold bend; also acts as connecting device for hammers/pulls
 <> - volume swell (louder/softer)
 x   - on rhythm slash represents muted slash
 o   - on rhythm slash represents single note slash

Misc Legend
-----------
 |  - bar
||  - double bar
||o - repeat start
o|| - repeat end
*|  - double bar (ending)
 :  - bar (freetime)
 $  - Segno
 &  - Coda
Tempo markers -  = BPM(8/16=s8/s16), where s8 = swing 8ths, s16 = swing 16ths


Tap to rate this tab
# A B C D E F G H I J K L M N O P Q R S T U V W X Y Z