Song name
# A B C D E F G H I J K L M N O P Q R S T U V W X Y Z

Papa Roach - Silence Is The Enemy tab

Hi, is't Jacoby Stasiuk again ; ]
I got tabs for Silence is The Enemy by PRoach ; ]
Tuning is Drop C (CGCFAD)

Intro goes with some sort of piano
Then guitar like this


--------------------------------|
--------------------------------|
--------5--3--------------------| play two times
--0--3--5--3--5--8--7--5--7-----| Figure out rythm
--0--3--3--1--5--8--7--5--7-----|
--0--3--------5--8--7--5--7-----|


---------------------------------------|
---------------------------------------|
----7--10--3--5--7--10--1--------------| play two times
----7--10--3--5--7--10--1--5-----------| you must figure out the rythm
----5--8---1--3--5--8---3--5-----------|
---------------------------5-----------|


--------------------------------------------------|
--------------------------------------------------|  Thats the pre-chorus thing
-----14------5-----14-----5-----------------------|
--0--x----3--x--8--x---5--x-----------------------|
--0--12---3--3--8--12--5--3-----------------------|
--0-------3-----8------5--------------------------|

and then first riff goes as chorus
And this is whole song ;]

oh, almost i forgot, ending is other

-----------------------------------------------|
-----------------------------------------------|
----14----5----14----5-------------------------|
--0-x---0-x--0-x---0-x-------------------------|
--0-12--0-3--0-12--0-3-------------------------|
--0-----0----0-----0---------------------------|

And it's all, greets from Jacoby Stasiuk ; D
Tap to rate this tab
# A B C D E F G H I J K L M N O P Q R S T U V W X Y Z