Guitaretab - guitar tabs
Song name
# A B C D E F G H I J K L M N O P Q R S T U V W X Y Z

Papa Roach - Lovehatetragedy tab

Gtr I (C# G# C# F# A# D#) - 'Untitled'
Gtr II (C# G# C# F# A# D#) - 'Untitled'
Gtr III (C# G# C# F# A# D#) - 'Untitled'
Gtr IV (C# G# C# F# A# D#) - 'Untitled'
Gtr V (C# G# C# F# A# D#) - 'Untitled'


   Intro
    Q=80
    N.C.
   6/8
    Gtr I
     E  E  E  E  E  E   Q  +Q..   T  T
||--------------------|----------------|
||o-------------------|----------------|
||-----------12-------|-9--(9)----9h10p|
||-----10-------10----|----------------|
||o-------------------|----------------|
||--10----10-------10-|----------------|


  S E E E S +S  E S   +S   Q.     Q    +S
|-------------------|-----------------------||
|-------------------|----------------------o||
|-9-8---------------|-----11----(11)--(11)--||
|---------9-(9)-----|-----------------------||
|-----9---------9---|----------------------o||
|-------9---------9-|-(9)-------------------||


 Pre-Verse
  Q.=107
  A5                                E5               G5
  Gtr II
   E E  H           E E  H           E E  Q    Q      E E  H
|----------------|----------------|----------------|----------------|
|----------------|----------------|----------------|----------------|
|----------------|----------------|----------------|----------------|
|--7-7-----------|--7-7-----------|--2-2-----------|--5-5-----------|
|--7-7-----------|--7-7-----------|--2-2-----------|--5-5-----------|
|--7-7-----------|--7-7-----------|--2-2-----------|--5-5-----------|
|
| Gtr III
|  <
|  E E  E E  E E    E E  E E  E E    E E  E E  E E    E E  E E  E E
|----------------|----------------|----------------|----------------|
|----------------|----------------|----------------|----------------|
|----------------|----------------|----------------|----------------|
|-10-9-10-9-10-9-|-10-9-10-9-10-9-|-10-9-10-9-10-9-|-10-9-10-9-10-9-|
|----------------|----------------|----------------|----------------|
|----------------|----------------|----------------|----------------|


   Verse
    A5    N.C.     A5    N.C.     E5    N.C.   G5    N.C.
    PM--|          PM--|          PM--|        PM--|
    E E E Q   E    E E E Q   E    E E E Q  E   E E E Q   E
||---------------|--------------|------------|---------------|
||o-------0--(0)-|-------0--(0)-|------------|-------0--(0)--|
||--------5---2--|-------5---2--|------------|-------4---2---|
||---------------|--------------|-------5--2-|---------------|
||o-7-7-7--------|-7-7-7--------|-2-2-2------|-5-5-5---------|
||--7-7-7--------|-7-7-7--------|-2-2-2------|-5-5-5---------|


  A5    N.C.     A5    N.C.     G5    N.C.     F5    N.C.
  PM--|          PM--|          PM--|          PM--|
  E E E Q   E    E E E Q   E    E E E Q   E    E E E Q   E
|--------------|--------------|--------------|---------------||
|-------0--(0)-|-------0--(0)-|-------0--(0)-|-------0--(0)-o||
|-------5---2--|-------5---2--|-------4---2--|-------2---0---||
|--------------|--------------|--------------|---------------||
|-7-7-7--------|-7-7-7--------|-5-5-5--------|-3-3-3--------o||
|-7-7-7--------|-7-7-7--------|-5-5-5--------|-3-3-3---------||


   Pre-Chorus
    A5        B5          C5          D5
    H    Q     H     Q     H     Q     H     Q
||----------|-----------|-----------|-------------||
||o---------|-----------|-----------|------------o||
||--9----9--|-11----11--|-12----12--|-14----14----||
||--7----7--|--9-----9--|-10----10--|-12----12----||
||o-7----7--|--9-----9--|-10----10--|-12----12---o||
||--7----7--|--9-----9--|-10----10--|-12----12----||


   Chorus
    N.C.
     E  E  E  E  E  E   E E E E E E   E E E E E E    E  E  E  E  E  E   3x
||--------------------|-------------|-------------|---------------------||
||o-------------------|-------------|-------------|--------------------o||
||--12-12-12-12-12-12-|-9-9-9-9-9-9-|-8-8-8-8-8-8-|-11-11-11-11-11-11---||
||---x--x--x--x--x--x-|-x-x-x-x-x-x-|-x-x-x-x-x-x-|--x--x--x--x--x--x---||
||o-10-10-10-10-10-10-|-7-7-7-7-7-7-|-6-6-6-6-6-6-|--9--9--9--9--9--9--o||
||--------------------|-------------|-------------|---------------------||


   E  E  E  E  E  E   E E E E E E    E  E  E  E  E  E    E  E  E  E  E  E
|-------------------|-------------|-------------------|-------------------|
|-------------------|-------------|-------------------|-------------------|
|-12-12-12-12-12-12-|-9-9-9-9-9-9-|-14-14-14-14-14-14-|-14-14-14-14-14-14-|
|--x--x--x--x--x--x-|-x-x-x-x-x-x-|--x--x--x--x--x--x-|--x--x--x--x--x--x-|
|-10-10-10-10-10-10-|-7-7-7-7-7-7-|-12-12-12-12-12-12-|-12-12-12-12-12-12-|
|-------------------|-------------|-------------------|-------------------|


 Pre-Verse
  A5                                E5               G5
  Gtr II
   E E  H           E E  H           E E  Q    Q      E E  H
|----------------|----------------|----------------|----------------|
|----------------|----------------|----------------|----------------|
|----------------|----------------|----------------|----------------|
|--7-7-----------|--7-7-----------|--2-2-----------|--5-5-----------|
|--7-7-----------|--7-7-----------|--2-2-----------|--5-5-----------|
|--7-7-----------|--7-7-----------|--2-2-----------|--5-5-----------|
|
| Gtr III
|  <
|  E E  E E  E E    E E  E E  E E    E E  E E  E E    E E  E E  E E
|----------------|----------------|----------------|----------------|
|----------------|----------------|----------------|----------------|
|----------------|----------------|----------------|----------------|
|-10-9-10-9-10-9-|-10-9-10-9-10-9-|-10-9-10-9-10-9-|-10-9-10-9-10-9-|
|----------------|----------------|----------------|----------------|
|----------------|----------------|----------------|----------------|


   Verse
    A5    N.C.     A5    N.C.     E5    N.C.   G5    B
    PM--|          PM--|          PM--|        PM--|
    E E E Q   E    E E E Q   E    E E E Q  E   E E E Q   E
||---------------|--------------|------------|---------------|
||o-------0--(0)-|-------0--(0)-|------------|-------0--(0)--|
||--------5---2--|-------5---2--|------------|-------4---2---|
||---------------|--------------|-------5--2-|---------------|
||o-7-7-7--------|-7-7-7--------|-2-2-2------|-5-5-5---------|
||--7-7-7--------|-7-7-7--------|-2-2-2------|-5-5-5---------|


  A5    N.C.     A5    N.C.     G5    N.C.     F5    N.C.
  PM--|          PM--|          PM--|          PM--|
  E E E Q   E    E E E Q   E    E E E Q   E    E E E Q   E
|--------------|--------------|--------------|---------------||
|-------0--(0)-|-------0--(0)-|-------0--(0)-|-------0--(0)-o||
|-------5---2--|-------5---2--|-------4---2--|-------2---0---||
|--------------|--------------|--------------|---------------||
|-7-7-7--------|-7-7-7--------|-5-5-5--------|-3-3-3--------o||
|-7-7-7--------|-7-7-7--------|-5-5-5--------|-3-3-3---------||


   Pre-Chorus
    A5        B5          C5          D5
    H    Q     H     Q     H     Q     H     Q
||----------|-----------|-----------|-------------||
||o---------|-----------|-----------|------------o||
||--9----9--|-11----11--|-12----12--|-14----14----||
||--7----7--|--9-----9--|-10----10--|-12----12----||
||o-7----7--|--9-----9--|-10----10--|-12----12---o||
||--7----7--|--9-----9--|-10----10--|-12----12----||


   Chorus
    N.C.
     E  E  E  E  E  E   E E E E E E   E E E E E E    E  E  E  E  E  E   3x
||--------------------|-------------|-------------|---------------------||
||o-------------------|-------------|-------------|--------------------o||
||--12-12-12-12-12-12-|-9-9-9-9-9-9-|-8-8-8-8-8-8-|-11-11-11-11-11-11---||
||---x--x--x--x--x--x-|-x-x-x-x-x-x-|-x-x-x-x-x-x-|--x--x--x--x--x--x---||
||o-10-10-10-10-10-10-|-7-7-7-7-7-7-|-6-6-6-6-6-6-|--9--9--9--9--9--9--o||
||--------------------|-------------|-------------|---------------------||


   E  E  E  E  E  E   E E E E E E    E  E  E  E  E  E    E  E  E  E  E  E
|-------------------|-------------|-------------------|-------------------|
|-------------------|-------------|-------------------|-------------------|
|-12-12-12-12-12-12-|-9-9-9-9-9-9-|-14-14-14-14-14-14-|-14-14-14-14-14-14-|
|--x--x--x--x--x--x-|-x-x-x-x-x-x-|--x--x--x--x--x--x-|--x--x--x--x--x--x-|
|-10-10-10-10-10-10-|-7-7-7-7-7-7-|-12-12-12-12-12-12-|-12-12-12-12-12-12-|
|-------------------|-------------|-------------------|-------------------|


   Bridge
    N.C.
    E E E E E E   E E E E E E   E E E E E E   E E E E E E
||--------------|-------------|-------------|-------------|
||o-------------|-------------|-------------|-------------|
||--------------|-------------|-------------|-------------|
||--------------|-------------|-------------|-------------|
||o-------------|-------------|-------------|-------------|
||--7-5-7-5-7-5-|-2-0-2-0-2-0-|-5-2-5-2-5-2-|-7-5-7-5-7-5-|


  E E E E E E    E E  E E  E E    E  E  E  E  E  E
|-------------|----------------|---------------------||
|-------------|----------------|--------------------o||
|-------------|----------------|---------------------||
|-------------|----------------|---------------------||
|-------------|----------------|--------------------o||
|-9-7-9-7-9-7-|-10-9-10-9-10-9-|-12-10-12-10-12-10---||

[ Tab from: http://www.guitaretab.com/p/papa-roach/32920.html ]
  A5G5A5G5A5G5  E5D5E5D5E5D5  G5E5G5E5G5E5  A5G5A5G5A5G5
  E E E E E E   E E E E E E   E E E E E E   E E E E E E
|-------------|-------------|-------------|-------------|
|-------------|-------------|-------------|-------------|
|-------------|-------------|-------------|-------------|
|-------------|-------------|-------------|-------------|
|-7-5-7-5-7-5-|-2-0-2-0-2-0-|-5-2-5-2-5-2-|-7-5-7-5-7-5-|
|-7-5-7-5-7-5-|-2-0-2-0-2-0-|-5-2-5-2-5-2-|-7-5-7-5-7-5-|


  B5A5B5A5B5A5  C5 B5C5 B5C5 B5  D5 C5 D5 C5 D5 C5   D5
  E E E E E E    E E  E E  E E    E  E  E  E  E  E    E  E  E  E  E  E
|-------------|----------------|-------------------|-------------------|
|-------------|----------------|-------------------|-------------------|
|-------------|----------------|-------------------|-------------------|
|-------------|----------------|-------------------|-------------------|
|-9-7-9-7-9-7-|-10-9-10-9-10-9-|-12-10-12-10-12-10-|-12-12-12-12-12-12-|
|-9-7-9-7-9-7-|-10-9-10-9-10-9-|-12-10-12-10-12-10-|-12-12-12-12-12-12-|


 Bridge
  Q=80
  N.C.
 6/8
  Gtr I
   E   E  E  E  E  E    Q   +Q..          T  T
|--------------------|-------------------------|
|--------------------|-------------------------|
|-----------12-------|--9---(9)-----------9h10p|
|-----10-------10----|-------------------------|
|--------------------|-------------------------|
|-10-----10-------10-|-------------------------|
|
| Gtr IV
|  Q.        Q     E    Q.        +Q    E
|--------------------|-------------------------|
|--------------------|-------------------------|
|--------------------|-12--------(12)--12------|
|-14--------14----10-|-------------------------|
|--------------------|-------------------------|
|--------------------|-------------------------|


  S  E E E   S +S  E   S   +S   Q.     Q    +S
|------------------------|----------------------|
|------------------------|----------------------|
|-9--8-------------------|-----11----(11)--(11)-|
|------------9-(9)-------|----------------------|
|------9-----------9-----|----------------------|
|--------9-------------9-|-(9)------------------|
|
| Q.       Q         E     +S   Q.     Q    +S
|------------------------|----------------------|
|------------------------|----------------------|
|------------------------|-----11----(11)--(11)-|
|-9--------9---------9---|-(9)------------------|
|------------------------|----------------------|
|------------------------|----------------------|


   E   E  E  E   E  E    Q    +Q..       T   T
|---------------------|------------------------|
|---------------------|------------------------|
|-----------12--------|--9----(9)--------9h=10p|
|-----10--------10----|------------------------|
|---------------------|------------------------|
|-10-----10--------10-|------------------------|
|
|  Q.        Q      E    Q    +Q..       S
|---------------------|------------------------|
|---------------------|------------------------|
|-14--------14-----16-|-12---(12)-------12\----|
|---------------------|------------------------|
|---------------------|------------------------|
|---------------------|------------------------|
|
| Gtr V
|  Q.        Q.          Q.         Q.
|-17\-------17\-------|-17\--------17\---------|
|---------------------|------------------------|
|---------------------|------------------------|
|---------------------|------------------------|
|---------------------|------------------------|
|---------------------|------------------------|


    S   E E E       S  +S  E    S    +S   Q.     Q        +S
|---------------------------------|---------------------------|
|---------------------------------|---------------------------|
|---9---8-------------------------|------11----(11)------(11)-|
|-------------------9--(9)--------|---------------------------|
|---------9----------------9------|---------------------------|
|-----------9-------------------9-|--(9)----------------------|
|
|   Q.          E      +E     E      +S   H          +E.
|---------------------------------|---------------------------|
|---------------------------------|---------------------------|
|--11----------11-----(11)---14---|-(14)-16---------(16)------|
|---------------------------------|---------------------------|
|---------------------------------|---------------------------|
|---------------------------------|---------------------------|
|
|   Q.          Q.                    W
|-(17)\-------(17)\---------------|---------------------------|
|---------------------------------|---------------------------|
|---------------------------------|---------------------------|
|---------------------------------|---------------------------|
|---------------------------------|---------------------------|
|---------------------------------|---------------------------|


 Pre-Chorus
  Q.=107
  A5                                E5               G5
 6/8
  Gtr II
   E E  H           E E  H           E E  Q    Q      E E H
|----------------|----------------|----------------|-----------|
|----------------|----------------|----------------|-----------|
|----------------|----------------|----------------|-----------|
|--7-7-----------|--7-7-----------|--2-2-----------|--5-5------|
|--7-7-----------|--7-7-----------|--2-2-----------|--5-5------|
|--7-7-----------|--7-7-----------|--2-2-----------|--5-5------|
|
| Gtr III
|  <
|  E E  E E  E E    E E  E E  E E    E E  E E  E E    E E H
|----------------|----------------|----------------|-----------|
|----------------|----------------|----------------|-----------|
|----------------|----------------|----------------|-----------|
|-10-9-10-9-10-9-|-10-9-10-9-10-9-|-10-9-10-9-10-9-|-10-9------|
|----------------|----------------|----------------|-----------|
|----------------|----------------|----------------|-----------|


   Chorus
    N.C.
     E  E  E  E  E  E   E E E E E E   E E E E E E    E  E  E  E  E  E   3x
||--------------------|-------------|-------------|---------------------||
||o-------------------|-------------|-------------|--------------------o||
||--12-12-12-12-12-12-|-9-9-9-9-9-9-|-8-8-8-8-8-8-|-11-11-11-11-11-11---||
||---x--x--x--x--x--x-|-x-x-x-x-x-x-|-x-x-x-x-x-x-|--x--x--x--x--x--x---||
||o-10-10-10-10-10-10-|-7-7-7-7-7-7-|-6-6-6-6-6-6-|--9--9--9--9--9--9--o||
||--------------------|-------------|-------------|---------------------||


   E  E  E  E  E  E   E E E E E E    E  E  E  E  E  E    E  E  E  E  E  E
|-------------------|-------------|-------------------|-------------------|
|-------------------|-------------|-------------------|-------------------|
|-12-12-12-12-12-12-|-9-9-9-9-9-9-|-14-14-14-14-14-14-|-14-14-14-14-14-14-|
|--x--x--x--x--x--x-|-x-x-x-x-x-x-|--x--x--x--x--x--x-|--x--x--x--x--x--x-|
|-10-10-10-10-10-10-|-7-7-7-7-7-7-|-12-12-12-12-12-12-|-12-12-12-12-12-12-|
|-------------------|-------------|-------------------|-------------------|


 Outro
  A5                                          E5                    G5
  E E  E   E   E   E    E E  E   E   E   E    E E  E   E   E   E    E  E H
|---------------------|---------------------|---------------------|-----------*|
|---------------------|---------------------|---------------------|-----------*|
|---------------------|---------------------|---------------------|-----------*|
|-7-7--x---x---x---x--|-7-7--x---x---x---x--|-2-2--x---x---x---x--|-5--5------*|
|-7-7--x---x---x---x--|-7-7--x---x---x---x--|-2-2--x---x---x---x--|-5--5------*|
|-7-7--x---x---x---x--|-7-7--x---x---x---x--|-2-2--x---x---x---x--|-5--5------*|
|
| Gtr II
| Q    E   E   E   E    Q    E   E   E   E    Q    E   E   E   E    H.
|---------------------|---------------------|-----<5>-<5>---------|-----------*|
|-----<7>-<7>---------|-----<7>-<7>---------|-------------<5>-<5>-|-----------*|
|-------------<7>-<7>-|-------------<7>-<7>-|---------------------|-----------*|
|---------------------|---------------------|---------------------|-----------*|
|---------------------|---------------------|---------------------|-----------*|
|---------------------|---------------------|---------------------|-----------*|




--------------------------------------------------------------------------------


Duration Legend
---------------
W - whole; H - half; Q - quarter; E - 8th; S - 16th; T - 32nd; X - 64th; a - acciaccatura
+ - note tied to previous; . - note dotted; .. - note double dotted
Uncapitalized letters represent notes that are staccato (1/2 duration)
Irregular groupings are notated above the duration line
Duration letters will always appear directly above the note/fret number it represents the
duration for.  Duration letters with no fret number below them represent rests.  Multi-
bar rests are notated in the form Wxn, where n is the number of bars to rest for.  Low
melody durations appear below the staff

Tablature Legend
----------------
 h   - hammer-on
 p   - pull-off
 b   - bend
 pb  - pre-bend
 r   - bend release (if no number after the r, then release immediately)
 /\  - slide into or out of (from/to "nowhere")
 s   - legato slide
 S   - shift slide
 - natural harmonic
[n]  - artificial harmonic
n(n) - tapped harmonic
 ~   - vibrato
 tr  - trill
 T   - tap
 TP  - trem. picking
 PM  - palm muting
\n/  - tremolo bar dip; n = amount to dip
 \n  - tremolo bar down
 n/  - tremolo bar up
/n\  - tremolo bar inverted dip
 =   - hold bend; also acts as connecting device for hammers/pulls
 <> - volume swell (louder/softer)
 x   - on rhythm slash represents muted slash
 o   - on rhythm slash represents single note slash

Misc Legend
-----------
 |  - bar
||  - double bar
||o - repeat start
o|| - repeat end
*|  - double bar (ending)
 :  - bar (freetime)
 $  - Segno
 &  - Coda
Tempo markers -  = BPM(8/16=s8/s16), where s8 = swing 8ths, s16 = swing 16ths


Related for Lovehatetragedy tab
Advertisement will be closed in 10 seconds