Song name
# A B C D E F G H I J K L M N O P Q R S T U V W X Y Z

Papa Roach - Where Did The Angels Go tab

Tuning is Drop D DADGBE from low to high.
Not sure about the solo part at 2:07, 99% sure about all the others.
PM/, = Palm mute
h= Hammer on's
p= Pull off's
^= String bend



0:01 - 0:09
E----------------------------------------------------------------------------|
B----------------------------------------------------------------------------|
G----------------------------------------------------------------------------|
D----------------------------------------------------------------------------|
A---------5---------------5---6^------------5--------------------------------|
D-000-000---00-0-0000-000---0-------000-000---00-0-0000-000-6666-1111--------|
PM,,, ,,,   ,, , ,,,, ,,,   ,       ,,, ,,,   ,, , ,,,, ,,,

0:10 - 0:17
E----------------------------------------------------------------------------|
B----------------------------------------------------------------------------|
G----------------------------------------------------------------------------|
D----------------------------------------------------------------------------|
A---------5---------------5---6---6---------5--------------------------------|
D-000-000---00-0-0000-000---0---0---000-000---00-0-0000-000-6666-1111--------|
PM,,, ,,,   ,, , ,,,, ,,,   ,   ,   ,,, ,,,   ,, , ,,,, ,,,

0:18-0:33 (x2 times)
E----------------------------------------------------------------------------|
B----------------------------------------------------------------------------|
G------------8-55------------------------------------------------------------|
D-0---xx0--xx8-55-0---xx0--xx------------------------------------------------|
A-0---xx0--xx6-33-0---xx0--xx-6---6---6--------------------------------------|
D-0---xx0--xx-----0---xx0--xx---0---0----------------------------------------|
PM                              ,   ,

0:33 0:37
E----------------------------------------------------------------------------|
B----------------------------------------------------------------------------|
G----------------------------------------------------------------------------|
D----------------------------------------------------------------------------|
A-----6---6-----6---6-----6---6-----6---6------------------------------------|
D-000---0---000---0---000---0---000---0--------------------------------------|
PM,,,   ,   ,,,   ,   ,,,   ,   ,,,   ,

0:37-0:55
E-----------------------------------------------------------------------------|
B-----------------------------------------------------------------------------|
G-333333332--------77777777--------333333332--------7777777755555555333333332-|
D-333333332555555557777777733333333333333332555555555555555533333333333333332
A-111111110555555555555555533333333111111110555555555555555533333333111111110
D----------55555555--------33333333---------55555555-------------------------


E----------------------------------------------------------------------------|
B----------------------------------------------------------------------------|
G----------------------------------------------------------------------------|
D-55555555-------------------------------------------------------------------|
A-55555555-------------------------------------------------------------------|
D-55555555-------------------------------------------------------------------|

0:57 - 1:04
E----------------------------------------------------------------------------|
B----------------------------------------------------------------------------|
G----------------------------------------------------------------------------|
D----------------------------------------------------------------------------|
A---------5---------------5---6^------------5--------------------------------|
D-000-000---00-0-0000-000---0-------000-000---00-0-0000-000-6666-1111--------|
PM,,, ,,,   ,, , ,,,, ,,,   ,       ,,, ,,,   ,, , ,,,, ,,,

1:05-1:20 (x2 times)
E----------------------------------------------------------------------------|
B----------------------------------------------------------------------------|
G------------8-55------------------------------------------------------------|
D-0---xx0--xx8-55-0---xx0--xx------------------------------------------------|
A-0---xx0--xx6-33-0---xx0--xx-6---6---6--------------------------------------|
D-0---xx0--xx-----0---xx0--xx---0---0----------------------------------------|
PM                              ,   ,

1:20-1:24
E----------------------------------------------------------------------------|
B----------------------------------------------------------------------------|
G----------------------------------------------------------------------------|
D----------------------------------------------------------------------------|
A-----6---6-----6---6-----6---6-----6---6------------------------------------|
D-000---0---000---0---000---0---000---0--------------------------------------|
PM,,,   ,   ,,,   ,   ,,,   ,   ,,,   ,

1:24 - 1:51
E-----------------------------------------------------------------------------|
B-----------------------------------------------------------------------------|
G-333333332--------77777777--------333333332--------7777777755555555333333332-|
D-333333332555555557777777733333333333333332555555555555555533333333333333332
A-111111110555555555555555533333333111111110555555555555555533333333111111110
D----------55555555--------33333333---------55555555-------------------------


E----------------------------------------------------------------------------|
B----------------------------------------------------------------------------|
G---------77777777--------333333332------------------------------------------|
D-55555555777777773333333333333333255555555----------------------------------|
A-55555555555555553333333311111111055555555----------------------------------|
D-55555555--------33333333---------55555555----------------------------------|

1:52 - 2:07 (x2 times)
E----------------------------------------------------------------------------|
B----------------------------------------------------------------------------|
G----------------------------------------------------------------------------|
D----------------------------------------------------------------------------|
A---------5---------------5---6^------------5--------------------------------|
D-000-000---00-0-0000-000---0-------000-000---00-0-0000-000-6666-1111--------|
PM,,, ,,,   ,, , ,,,, ,,,   ,       ,,, ,,,   ,, , ,,,, ,,,

2:07 - 2:22 not sure about this part.
E----------------------------------------------------------------------------|
B----------------------------------------------------------------------------|
G-7h10p7h10p7-7h10p7h10p7-6h9p6h9p6-6h9p6h9p6-3h6p3h6p3-3h6p3h6p3-6h9p6h9p6--|
D----------------------------------------------------------------------------|
A----------------------------------------------------------------------------|
D----------------------------------------------------------------------------|

E----------------------------------------------------------------------------|
B----------------------------------------------------------------------------|
G-6h9p6h9p6-7h10p7h10p7-7h10p7h10p7-6h9p6h9p6-6h9p6h9p6-3h6p3h6p3-3h6p3h6p3--|
D----------------------------------------------------------------------------|
A----------------------------------------------------------------------------|
D----------------------------------------------------------------------------|

E----------------------------------------------------------------------------|
B----------------------------------------------------------------------------|
G-6h9p6h9p6------------------------------------------------------------------|
D----------------------------------------------------------------------------|
A----------------------------------------------------------------------------|
D----------------------------------------------------------------------------|

2:23 - 2:50
E-----------------------------------------------------------------------------|
B-----------------------------------------------------------------------------|
G-333333332--------77777777--------333333332--------7777777755555555333333332-|
D-333333332555555557777777733333333333333332555555555555555533333333333333332
A-111111110555555555555555533333333111111110555555555555555533333333111111110
D----------55555555--------33333333---------55555555-------------------------


E----------------------------------------------------------------------------|
B----------------------------------------------------------------------------|
G---------77777777--------333333332------------------------------------------|
D-55555555777777773333333333333333255555555----------------------------------|
A-55555555555555553333333311111111055555555----------------------------------|
D-55555555--------33333333---------55555555----------------------------------|

2:51 - 3:07 (x2 times)
E----------------------------------------------------------------------------|
B----------------------------------------------------------------------------|
G----------------------------------------------------------------------------|
D----------------------------------------------------------------------------|
A---------5---------------5---6^------------5--------------------------------|
D-000-000---00-0-0000-000---0-------000-000---00-0-0000-000-6666-1111--------|
PM,,, ,,,   ,, , ,,,, ,,,   ,       ,,, ,,,   ,, , ,,,, ,,,

Enjoy. :)
Tap to rate this tab
 
# A B C D E F G H I J K L M N O P Q R S T U V W X Y Z