Song name
# A B C D E F G H I J K L M N O P Q R S T U V W X Y Z

Papa Roach - Silence Is The Enemy tab

From Album: The Connection (2012)

Tuning: Drop C

Intro 0.00-0.13 no guitar

2nd part of intro 0.14-0.27
Figure out strumming for yourself

D---------------------------|
A---------------------------|       X2
F------5--------------------|
C--0-3-5-5---7-9-6-5--------|
G--0-3-3-5---7-9-6-5--------|
C--0-3---5---5-9-6-5--------|

Verse 0.27-0.42

D------------------------------------------------------------|
A------------------------------------------------------------|   X2
F---------9-9-9--3-3-3--5-5-5---------9-9-9--3-3-3-----------|
C--5-5-5--9-9-9--3-3-3--5-5-5--5-5-5--9-9-9--3-3-3--3-3-3----|
G--5-5-5--7-7-7--1-1-1--3-3-3--5-5-5--7-7-7--1-1-1--3-3-3----|
C--5-5-5-----------------------5-5-5----------------3-3-3----|

Pre-Chorus 0.43-0.49

D---------------------------|
A---------------------------|
F-----14-----5-----14-----9-|
C--0--14--3--5--7--14--5--9-|
G--0--12--3--3--7--12--5--7-|
C--0------3-----7------5----|
      X6     X6    X6           X6

Chorus 0.50-1.10  Intro riff then pre-chorus riff

Verse 1.11-1.24

Pre Chorus 1.25-1.32

Chorus 1.33-2.01

Bridge: 2.02-2.14 no guitar

2.15-2.42 Chorus

2.43-end

Almost the same as the pre-chorus riff
Instead of playing

C--0---------3--------7--------5-|
G--0---------3--------7--------5-|
C--0---------3--------7--------5-|

Just play them

C--0--------0---------0--------0-|
G--0--------0---------0--------0-|
C--0--------0---------0--------0-|
Tap to rate this tab
# A B C D E F G H I J K L M N O P Q R S T U V W X Y Z