Song name
# A B C D E F G H I J K L M N O P Q R S T U V W X Y Z

Papa Roach - To Be Loved tab

-------------------------------------------------------------------------------
                             ...To Be Loved  - Papa Roach
-------------------------------------------------------------------------------
Tabbed by:LastResort42
E-mail:brockbrookes@gmail.com

This is an alternate way of playing this awesome track without having to muck
about with tuning too much. This does mean sacrificing some of the lower notes
but they sound fine an octave higher, which is how they are tabbed here.
Just drop your low E string down to a D.

Tuning:DADGBe

Intro:

e|---------------------------------------------------------------------------|
B|---------------------------------------------------------------------------|
G|5-------5------------------------------------------------------------------|
D|5---5---5---1---3---1----x2------------------------------------------------|
A|3---5---3---1---3---1------------------------------------------------------|
D|----5-------1---3---1------------------------------------------------------|

e|---------------------------------------------------------------------------|
B|---------------------------------------------------------------------------|
G|5-------5------------------------------------------------------------------|
D|5---5---5---1---3---1----x8------------------------------------------------|
A|3---5---3---1---3---1------------------------------------------------------|
D|----5-------1---3---1------------------------------------------------------|

e|---------------------------------------------------------------------------|
B|---------------------------------------------------------------------------|
G|5-------5----------------5-------5-----------------------------------------|
D|5---5---5---1---3---1----5---5---5---1---3---------------------------------|
A|3---5---3---1---3---1----3---5---3---1---3---------------------------------|
D|----5-------1---3---1--------5-------1---3---------------------------------|

Chorus:

e|---------------------------------------------------------------------------|
B|---------------------------------------------------------------------------|
G|---------------------------------------------------------------------------|
D|--1010101010101010----88888888----66666666----33333333---------------------|
A|--1010101010101010----88888888----66666666----33333333---------------------|
D|--1010101010101010----88888888----66666666----33333333---------------------|

e|---------------------------------------------------------------------------|
B|---------------------------------------------------------------------------|
G|------------------------------------------------------6666-----------------|
D|--1010101010101010----66666666----33333333----1111----6666-----------------|
A|--1010101010101010----66666666----33333333----1111----4444-----------------|
D|--1010101010101010----66666666----33333333----1111-------------------------|

Verse:

Guitar 1:

e|---------------------------------------------------------------------------|
B|---------------------------------------------------------------------------|
G|---------------------------------------------------------------------------|
D|--10--10----X----10--10--10----X----10-------------------------------------|
A|--10--10----X----10--10--10----X----10-------------------------------------|
D|--10--10----X----10--10--10----X----10-------------------------------------|
                                                                             |
Guitar 2:                                                                    |
                                                                             |
e|---------------------------------------------------------------------------|
B|---------------------------------------------------------------------------|
G|-----------12-12-12-------------10-10-10-10--------------------------------|
D|--10-10-10----------10-10-13-13-------------13-13--------------------------|
A|---------------------------------------------------------------------------|
D|---------------------------------------------------------------------------|

Guitar 1:

e|---------------------------------------------------------------------------|
B|---------------------------------------------------------------------------|
G|---------------------------------------------------------------------------|
D|--6--6----X----6--6--6----X----6-------------------------------------------|
A|--6--6----X----6--6--6----X----6-------------------------------------------|
D|--6--6----X----6--6--6----X----6-------------------------------------------|
                                                                             |
Guitar 2:                                                                    |
                                                                             |
e|---------------------------------------------------------------------------|
B|---------------------------------------------------------------------------|
G|-----------12-12-12-------------10-10-10-10--------------------------------|
D|--------------------------13-13-------------13-13--------------------------|
A|--11-11-11----------11-11--------------------------------------------------|
D|---------------------------------------------------------------------------|

Guitar 1:

e|---------------------------------------------------------------------------|
B|---------------------------------------------------------------------------|
G|---------------------------------------------------------------------------|
D|--3--3----X----3--3--3----X----3-------------------------------------------|
A|--3--3----X----3--3--3----X----3-------------------------------------------|
D|--3--3----X----3--3--3----X----3-------------------------------------------|
                                                                             |
Guitar 2:                                                                    |
                                                                             |
e|---------------------------------------------------------------------------|
B|---------------------------------------------------------------------------|
G|-----------12-12-12-----------10-10-10-10----------------------------------|
D|------------------------13-13-------------13-13----------------------------|
A|-----8-8-8----------8-8----------------------------------------------------|
D|---------------------------------------------------------------------------|

Guitar 1:

e|---------------------------------------------------------------------------|
B|---------------------------------------------------------------------------|
G|---------------------------------------------------------------------------|
D|--5--5----X----5--5--5----X----5-------------------------------------------|
A|--5--5----X----5--5--5----X----5-------------------------------------------|
D|--5--5----X----5--5--5----X----5-------------------------------------------|
                                                                             |
Guitar 2:                                                                    |
                                                                             |
e|---------------------------------------------------------------------------|
B|---------------------------------------------------------------------------|
G|-----------12-12-12--------8-8-10-10-8-8-10-10-----------------------------|
D|---------------------------------------------------------------------------|
A|--10-10-10----------10-10--------------------------------------------------|
D|---------------------------------------------------------------------------|

Guitar 1:

e|---------------------------------------------------------------------------|
B|---------------------------------------------------------------------------|
G|---------------------------------------------------------------------------|
D|--10--10----X----10--10--10----X----10-------------------------------------|
A|--10--10----X----10--10--10----X----10-------------------------------------|
D|--10--10----X----10--10--10----X----10-------------------------------------|
                                                                             |
Guitar 2:                                                                    |
                                                                             |
e|---------------------------------------------------------------------------|
B|---------------------------------------------------------------------------|
G|-----------12-12-12-------------10-10-10-10--------------------------------|
D|--10-10-10----------10-10-13-13-------------13-13--------------------------|
A|---------------------------------------------------------------------------|
D|---------------------------------------------------------------------------|

Guitar 1:

e|---------------------------------------------------------------------------|
B|---------------------------------------------------------------------------|
G|---------------------------------------------------------------------------|
D|--6--6----X----6--6--6----X----6-------------------------------------------|
A|--6--6----X----6--6--6----X----6-------------------------------------------|
D|--6--6----X----6--6--6----X----6-------------------------------------------|
                                                                             |
Guitar 2:                                                                    |
                                                                             |
e|---------------------------------------------------------------------------|
B|---------------------------------------------------------------------------|
G|-----------12-12-12-------------10-10-10-10--------------------------------|
D|--------------------------13-13-------------13-13--------------------------|
A|--11-11-11----------11-11--------------------------------------------------|
D|---------------------------------------------------------------------------|

Guitar 1:

e|---------------------------------------------------------------------------|
B|---------------------------------------------------------------------------|
G|---------------------------------------------------------------------------|
D|--3--3----X----3--3--3----X----3-------------------------------------------|
A|--3--3----X----3--3--3----X----3-------------------------------------------|
D|--3--3----X----3--3--3----X----3-------------------------------------------|
                                                                             |
Guitar 2:                                                                    |
                                                                             |
e|---------------------------------------------------------------------------|
B|---------------------------------------------------------------------------|
G|--------12-12-12-----------10-10-10-10-------------------------------------|
D|---------------------13-13-------------13-13-------------------------------|
A|--8-8-8----------8-8-------------------------------------------------------|
D|---------------------------------------------------------------------------|

Guitar 1:

e|---------------------------------------------------------------------------|
B|---------------------------------------------------------------------------|
G|----------------6--6--6666-------------------------------------------------|
D|--1--1--1--1----6--6--6666-------------------------------------------------|
A|--1--1--1--1----4--4--4444-------------------------------------------------|
D|--1--1--1--1---------------------------------------------------------------|
                                                                             |
Guitar 2:                                                                    |
                                                                             |
e|---------------------------------------------------------------------------|
B|---------------------------------------------------------------------------|
G|-----------12-12-12--------8-8-10-10-8-8-10-10-----------------------------|
D|---------------------------------------------------------------------------|
A|--10-10-10----------10-10--------------------------------------------------|
D|---------------------------------------------------------------------------|


Song Order:

Intro x1
Chorus x1
Verse x1
Chorus x1
Verse x1 
Chorus x2
Chorus x1 (first line no guitar, ONLY PLAY THE SECOND LINE WHEN THE GUITAR KICKS BACK IN!!!)
Chorus x1 (This time ONLY PLAY THE FIRST LINE!)



************************************
| /   slide up
| \   slide down
| h   hammer-on
| p   pull-off
| ~   vibrato
| +   harmonic
| x   Mute note
| b   Bend
| pb  Pre-bend
| br  Bend release
| pbr Pre-bend release
| brb Bend release bend

************************************
Tap to rate this tab
# A B C D E F G H I J K L M N O P Q R S T U V W X Y Z