Song name
# A B C D E F G H I J K L M N O P Q R S T U V W X Y Z

Papa Roach - Decompression Period tab

Papa Roach – Decompression Period
From The Album ‘LoveHateTragedy‘

Tabbed By Daniel (pittaz_01@hotmail.com)

Listen to the CD for the rhythm of the song.

Ive Corrected and put everything in order

Drop D tuning (Half tone lower)

X = Muted Strum

Intro:
e|--------------------------------------|
b|--------------------------------------|
g|--------------------------------------|
d|----7---6-7-4-------------------------| X3
a|--4---4-------4-----------------------|
D|-4--------------3---------------------|

e|--------------------------------------|
b|--------------------------------------|
g|--------------------------------------|
d|-----2/4-----4/6-----2-----4----------|
a|---0-------2-------0-----2------------|
D|-0-------2-------0-----2--------------|

e|--------------------------------------|
b|--------------------------------------|
g|--------------------------------------|
d|----7---6-7-4-------------------------|
a|--4---4-------4-----------------------|
D|-4--------------3---------------------|

e|--------------------2----------------------------|
b|----------------------2--------------------------|
g|------------------------2------------------------|
d|--------------2-4-2-------------2----------------|
a|-4-5-2-4-0---2----------------2-------7----7-----|
D|------------2-------------0-2------6h7--6h7------|

e|--------------------------------------|
b|--------------------------------------|
g|--------------------------------------|
d|----7---6-7-4-------------------------|
a|--4---4-------4-----------------------|
D|-4--------------3---------------------|

e|--------------------------------------|
b|--------------------------------------|
g|--------------------------------------|
d|-----2/4-----4/6-----2-----4----------|
a|---0-------2-------0-----2------------|
D|-0-------2-------0-----2--------------|


e|--------------------2--------------------------|
b|----------------------2------------------------|
g|------------------------2----------------------|
d|--------------2-4-2-------------2--------------|
a|-4-5-2-4-0---2----------------2-------7----7---|
D|------------2-------------0-2------6h7--6h7----|

Chorus:
e|----------------------------------------------|
b|----------------------------------------------|
g|-------6-7-4-6-2------------------------------|
d|-4--2--x-x-x-x-x--0--2--4--2xxx2-2--3xxx3--3--|
a|-4--2--4-5-2-4-0--0--2--4--2xxx2-2--3xxx3--3--|
D|-4--2-------------0--2--4--2xxx2-2--3xxx3--3--|

e|----------------------------------------------|
b|----------------------------------------------|
g|-6----6-----5----5-----4----4-----2----2------|
d|-4xxxx4xxxx-3xxxx3xxxx-2xxxx2xxxx-0xxxx0xxxx--|
a|-4xxxx4xxxx-3xxxx3xxxx-2xxxx2xxxx-0xxxx0xxxx--|
D|-4xxxx4xxxx-3xxxx3xxxx-2xxxx2xxxx-0xxxx0xxxx--|

e|-----------------------------------------------------|
b|-----------------------------------------------------|
g|-----------------------------------------------------|
d|-4xxxx4xxxx-7xxxx7xxxx-9xxxx9xxxx-12-12-12—-11-11-11-|
a|-4xxxx4xxxx-7xxxx7xxxx-9xxxx9xxxx-12-12-12—-11-11-11-|
D|-4xxxx4xxxx-7xxxx7xxxx-9xxxx9xxxx-12-12-12—-11-11-11-|

Verse
e|--------------------------------------|
b|--------------------------------------|
g|--------------------------------------|
d|----7---6-7-4-------------------------|
a|--4---4-------4-----------------------|
D|-4--------------3---------------------|

e|--------------------------------------|
b|--------------------------------------|
g|--------------------------------------|
d|-----2/4-----4/6-----2-----4----------|
a|---0-------2-------0-----2------------|
D|-0-------2-------0-----2--------------|

e|--------------------------------------|
b|--------------------------------------|
g|--------------------------------------|
d|----7---6-7-4-------------------------|
a|--4---4-------4-----------------------|
D|-4--------------3---------------------|

e|--------------------------------------|
b|--------------------------------------|
g|--------------------------------------|
d|-----2/4-----4/6-----2-----4----------|
a|---0-------2-------0-----2------------|
D|-0-------2-------0-----2--------------|

Chorus:
e|----------------------------------------------|
b|----------------------------------------------|
g|-6----6-----5----5-----4----4-----2----2------|
d|-4xxxx4xxxx-3xxxx3xxxx-2xxxx2xxxx-0xxxx0xxxx--|
a|-4xxxx4xxxx-3xxxx3xxxx-2xxxx2xxxx-0xxxx0xxxx--|
D|-4xxxx4xxxx-3xxxx3xxxx-2xxxx2xxxx-0xxxx0xxxx--|

e|-----------------------------------------------------|
b|-----------------------------------------------------|
g|-----------------------------------------------------|
d|-4xxxx4xxxx-7xxxx7xxxx-9xxxx9xxxx-12-12-12—-11-11-11-|
a|-4xxxx4xxxx-7xxxx7xxxx-9xxxx9xxxx-12-12-12—-11-11-11-|
D|-4xxxx4xxxx-7xxxx7xxxx-9xxxx9xxxx-12-12-12—-11-11-11-|

e|----------------------------------------------|
b|----------------------------------------------|
g|-6----6-----5----5-----4----4-----2----2------|
d|-4xxxx4xxxx-3xxxx3xxxx-2xxxx2xxxx-0xxxx0xxxx--|
a|-4xxxx4xxxx-3xxxx3xxxx-2xxxx2xxxx-0xxxx0xxxx--|
D|-4xxxx4xxxx-3xxxx3xxxx-2xxxx2xxxx-0xxxx0xxxx--|

e|-----------------------------------------------------|
b|-----------------------------------------------------|
g|-----------------------------------------------------|
d|-4xxxx4xxxx-7xxxx7xxxx-9xxxx9xxxx-12-12-12—-11-11-11-|
a|-4xxxx4xxxx-7xxxx7xxxx-9xxxx9xxxx-12-12-12—-11-11-11-|
D|-4xxxx4xxxx-7xxxx7xxxx-9xxxx9xxxx-12-12-12—-11-11-11-|

Solo:
e|----------------------------------------------------|
b|----------------------------------------------------|
g|----------------------------------------------------|
d|-2h4/6-4-2-4-2h4/6-4-2-4-2h4/6-4-6-7-6-7-9-7-9-11~--|
a|----------------------------------------------------|
D|----------------------------------------------------|

e|----------12--------------------------|
b|--7-10-7-----10-9---------------------|
g|--------------------------------------|
d|--------------------------------------|
a|--------------------------------------|
D|--------------------------------------|

Chorus:
e|----------------------------------------------|
b|----------------------------------------------|
g|-6----6-----5----5-----4----4-----2----2------|
d|-4xxxx4xxxx-3xxxx3xxxx-2xxxx2xxxx-0xxxx0xxxx--|
a|-4xxxx4xxxx-3xxxx3xxxx-2xxxx2xxxx-0xxxx0xxxx--|
D|-4xxxx4xxxx-3xxxx3xxxx-2xxxx2xxxx-0xxxx0xxxx--|

e|----------------------------------------------|
b|----------------------------------------------|
g|-------6-7-4-6-2------------------------------|
d|-4--2--x-x-x-x-x--0--2--4--2xxx2-2--3xxx3--3--|
a|-4--2--4-5-2-4-0--0--2--4--2xxx2-2--3xxx3--3--|
D|-4--2-------------0--2--4--2xxx2-2--3xxx3--3--|
Tap to rate this tab
 
# A B C D E F G H I J K L M N O P Q R S T U V W X Y Z