Song name
# A B C D E F G H I J K L M N O P Q R S T U V W X Y Z

Papa Roach - Still Swingin tab

All the tabs I've seen are wrong in certain spots and were just copied so I made one 
that I'm sure is 100% accurate.

Guitar 1 and 2 are played at the same time, harmonizing at certain points.

Guitar 1
D#|------------------------------------------------------------------------------------------|
A#|------------------------------------------------------------------------------------------|
F#|-------7--5--7------------------------10--9--10---10-10-10-10-10-10-10-10-9-9-9-9-9-9-9-9-|
C#|------------------------------------------------------------------------------------------|
G#|--0-0--5--3--5--0-0--0h3-5h8-5---0-0--8---7--8----8--8--8--8--8--8--8--8--7-7-7-7-7-7-7-7-|
C#|--0-0-----------0-0--------------0-0------------------------------------------------------|

D#|----------------------------------------------------------------------------------|
A#|----------------------------------------------------------------------------------|
F#|-------7--5--7------------------------10--9--10---8-8-8-8-8-8-8-8-7-7-7-7-7-7-7-7-|
C#|----------------------------------------------------------------------------------|
G#|--0-0--5--3--5--0-0--0h3-5h8-5---0-0--8---7--8----6-6-6-6-6-6-6-6-5-5-5-5-5-5-5-5-|
C#|--0-0-----------0-0--------------0-0----------------------------------------------|

Guitar 2
D#|----------------------------------------------------------------------------------------|
A#|----------------------------------------------------------------------------------------|
F#|-------7--5--7------------------------7--5--7---10-10-10-10-10-10-10-10-9-9-9-9-9-9-9-9-|
C#|----------------------------------------------------------------------------------------|
G#|--0-0--5--3--5--0-0--0h3-5h8-5---0-0--5--3--5---8--8--8--8--8--8--8--8--7-7-7-7-7-7-7-7-|
C#|--0-0-----------0-0--------------0-0----------------------------------------------------|

D#|--------------------------------------------------------------------------------|
A#|--------------------------------------------------------------------------------|
F#|-------7--5--7------------------------7--5--7---8-8-8-8-8-8-8-8-7-7-7-7-7-7-7-7-|
C#|--------------------------------------------------------------------------------|
G#|--0-0--5--3--5--0-0--0h3-5h8-5---0-0--5--3--5---6-6-6-6-6-6-6-6-5-5-5-5-5-5-5-5-|
C#|--0-0-----------0-0--------------0-0--------------------------------------------|

Verse:
Both Guitars
D#|-----------------------------------------------------------------------------|
A#|-----------------------------------------------------------------------------|
F#|-------------------------------------10-10-10-10-10-10-10-10-9-9-9-9-9-9-9-9-|
C#|-----------------------------------------------------------------------------|
G#|--0-0----0-0---0h3-5h8-5---0-0-------8--8--8--8--8--8--8--8--7-7-7-7-7-7-7-7-|
C#|--0-0----0-0---------------0-0-----------------------------------------------|

D#|---------------------------------------------------|
A#|---------------------------------------------------|
F#|-------------------------------------8-8-8-8-8-8-7-|
C#|---------------------------------------------------|
G#|--0-0----0-0---0h3-5h8-5---0-0-------6-6-6-6-6-6-5-|
C#|--0-0----0-0---------------0-0---------------------|

Pre-Chorus:
D#|-----------------------------------------------------------------------------|
A#|-----------------------------------------------------------------------------|
F#|-------------------------------------10-10-10-10-10-10-10-10-9-9-9-9-9-9-9-9-|
C#|-----------------------------------------------------------------------------|
G#|--0-0----0-0---0h3-5h8-5---0-0-------8--8--8--8--8--8--8--8--7-7-7-7-7-7-7-7-|
C#|--0-0----0-0---------------0-0-----------------------------------------------|

D#|-----------------------------------------|
A#|-----------------------------------------|
F#|-----------------------------------------|
C#|-----------------------------------------|
G#|--0-0----0-0---0h3-5h8-5---0-0-----------|
C#|--0-0----0-0---------------0-0-------12\-|

Chorus:
Both Guitars(Just giving the chords, not how many times to strum them)
D#|--------------------------|
A#|--------------------------|
F#|-5-----2-----10----12-----|
C#|-3-----0-----8-----10-----|
G#|-3-----0-----8-----10-----|
C#|-3-----0-----8-----10-----|

Do this at the end of the row above on the first time.. its like you do harmonics on the 
5th fret and mute the strings at the same time
D#|----------|
A#|----------|
F#|----------|
C#|-5-5--5-5-|
G#|-5-5--5-5-|
C#|-5-5--5-5-|

Repeat the Riff

Verse:
Both Guitars
D#|-----------------------------------------------------------------------------|
A#|-----------------------------------------------------------------------------|
F#|-------------------------------------10-10-10-10-10-10-10-10-9-9-9-9-9-9-9-9-|
C#|-----------------------------------------------------------------------------|
G#|-------------------------------------8--8--8--8--8--8--8--8--7-7-7-7-7-7-7-7-|
C#|-----------------------------------------------------------------------------|

D#|---------------------------------------------------|
A#|---------------------------------------------------|
F#|-------------------------------------8-8-8-8-8-8-7-|
C#|---------------------------------------------------|
G#|--0-0----0-0---0h3-5h8-5---0-0-------6-6-6-6-6-6-5-|
C#|--0-0----0-0---------------0-0---------------------|

The Pre-Chorus is the same except you do this thing again right before the chorus starts
D#|----------|
A#|----------|
F#|----------|
C#|-5-5--5-5-|
G#|-5-5--5-5-|
C#|-5-5--5-5-|

The bridge has no guitar because its all electronic andddd the rest is just a bunch of 
the same stuff so I don't need to go any furthur. Enjoy :)
Tap to rate this tab
# A B C D E F G H I J K L M N O P Q R S T U V W X Y Z