Song name
# A B C D E F G H I J K L M N O P Q R S T U V W X Y Z

Papa Roach - 829 tab

Tuning- Standard

 Intro/Riff
e----------------------------------|
b----------------------------------|
g----------------------------------|
d----------------------------------|
a---1-1-1-1--1-1-1-1-1-1-----------|
e--------0-0----------0-0----------|


Part 1/Chorus
e----------------------------------|
b----------------------------------|
g----------------------------------|
d----------------------------------|
a----------------------------------|
e-5-3-2*-3-3-2-2-3-3-2-3-----------|


Verse
e----------------------------------|
b----------------------------------|
g----------------------------------|
d----------------------------------|
a-------------------------------7-7|
e-6-6-6-5-5-5-6-6-6-5-5-5-6-6-6----|


End
e---------------------------------------|
b---------------------------------------|
g---------------------------------------|
d---------------------------------------|
a--7*-------------------7---------------|
E----5-3-3-3-3-5-3-4-----3-3-3-5-4-3-3-3|
Tap to rate this tab
# A B C D E F G H I J K L M N O P Q R S T U V W X Y Z