Song name
# A B C D E F G H I J K L M N O P Q R S T U V W X Y Z

Papa Roach - Coffee Thoughts tab

          Author/Artist: Papa Roach
          Title: Coffee Thoughts
          Album: Potatoes For Christmas
          Transcribed by: Michael Jonathan
          Email: TheSpookyKidsFL@aol.com
          
          If you're lucky enough to know what this song is, 
          listen to it and this should at 
          least get you into the groove of playing it. 
          
          ---------------------|---------------|-----------|----------------------------
          ---------------------|---------------|-----------|----------------------------
          ---------------------|---------------|-----------|----------------------------
          ---------------------|-33-22-3--3-44-|---3-------|-2-333----------------------
          -003-0003-0003-05-07-|-11-00-1-1-1---|--1-2--232-|-0-111----------------------
          ---------------------|---------------|-2---33----|----------------------------
                                                                                        
          
          ------------|-----------------|-----------------------------------------------
          ------------|-----------------|-----------------------------------------------
          ------------|-----------------|-----------------------------------------------
          ------------|---------------2-|-33-332-33-------------------------------------
          --0-0-0---0-|-002-003-002-00--|-11-110-11-------------------------------------
          -0-0-0-030--|-----------------|-----------------------------------------------
Tap to rate this tab
 
# A B C D E F G H I J K L M N O P Q R S T U V W X Y Z