Song name
# A B C D E F G H I J K L M N O P Q R S T U V W X Y Z

Papa Roach - Peewagon tab

Author/Artist: Papa Roach
Title: PeeWagon
Album: Old Friends From Young Years
Transcribed by: Spooky Mike
Email: Amandas_Lestat@hotmail.com

Awesome yet disturbing song...

intro
-------------------------------
-------------------------------
-------------------------------
-3-----0----0---3-----0----0---
-3---1----1---0-3---1----1---0-
-1-0----0-------1-0----0-------
                                                                              
main riff
--------------------
--------------------
------------------3-
-333-33-2-333-3-4-3-
-333-33-2-333-3-4-1-
-111-11-0-111-1-2---
"Pee...pee...wag...peewagon!"
                                                                              
verse
-------------
-------------
-----2---3-2-
---1---1-----
-0-----------
-------------
"I go to my friend's house to sleep at night..."
                                                                              
riff
---------------------
---------------------
-----3---------3-----
---2---2-----2---2---
-1-------1-1-------1-
---------------------
"not my ball sack, I'm talkin' about my dick..."
                                                                              
chorus
----------------------------------
----------------------------------
----------------------------------
-3------3------3--3------3------3-
-3-xxxx-3-xxxx-3--3-xxxx-3-xxxx-3-
-1-xxxx-1-xxxx-1--1-xxxx-1-xxxx-1-
"Pee...wa...gon! Mommy, I don't want to go to Billy's!"
Tap to rate this tab
 
# A B C D E F G H I J K L M N O P Q R S T U V W X Y Z