Song name
# A B C D E F G H I J K L M N O P Q R S T U V W X Y Z

Papa Roach - Code Of Energy tab

Gtr I (C# G# C# F# A# D#) - 'Untitled'
Gtr II (C# G# C# F# A# D#) - 'Untitled'
Gtr III (C# G# C# F# A# D#) - 'Untitled'


 Intro
  Q=125
  N.C.
 4/4
  Gtr I
  S S S S S S S S S S S S S S S S   S S S S S S S S S S S S S S S S
|---------------------------------|----------------------------------|
|---------------------------------|----------------------------------|
|---------------------------------|----------------------------------|
|---------------------------------|----------------------------------|
|-----------------3p2-------------|-----------------3p2-----------2--|
|-x-0-2-2-5-2-2-2-----0-0-2-2-5-2-|-2-0-2-2-5-2-2-2-----0-0-2-2-5----|


  Gtr II
  S S S S S S S S S S S S S S S S   S S S S S S S S S S S S S S S S
|---------------------------------|---------------------------------|
|---------------------------------|---------------------------------|
|---------------------------------|---------------------------------|
|---------------------------------|---------------------------------|
|-----------------3p2-------------|-----------------3p2-----------2-|
|-x-0-2-2-5-2-2-2-----0-0-2-2-5-2-|-2-0-2-2-5-2-2-2-----0-0-2-2-5---|


   Pre-Verse
    N.D5E5    E5  N.C.D5  E5  G5E5      D5E5  G5E5  N.C.D5  E5  G5N.C.
    Gtr III
    S S S S S E S S S S S S S S S   +S  S S S S E S S S S S S S S S
||--------------------------------|-----------------------------------||
||o-------------------------------|----------------------------------o||
||----------------5-4-------------|-----------------5-4-----------4---||
||----------------x-x-------------|-----------------x-x-----------x---||
||o-x-0-2-2-5-2-2-3-2-0-0-2-2-5-2-|-(2)-0-2-2-5-2-2-3p2-0-0-2-2-5-2--o||
||--x-0-2-2-5-2-2-----0-0-2-2-5-2-|-(2)-0-2-2-5-2-2-----0-0-2-2-5-----||


   Verse
    N.C.
    S S S S S S S S S S S S S S S S   S S S S S S S S S S S S S S S S   4x
||----------------------------------|-----------------------------------||
||o---------------------------------|----------------------------------o||
||----------------------------------|-----------------------------------||
||----------------------------------|-----------------------------------||
||o-----------------3p2-------------|-----------------3p2-----------2--o||
||--x-0-2-2-5-2-2-2-----0-0-2-2-5-2-|-2-0-2-2-5-2-2-2-----0-0-2-2-5-----||


   Chorus
    A5                  C5            G5
    E Q.   E  Q.         E   Q.       E Q.
||--------------------|-------------------------|
||o-------------------|-------------------------|
||--------------------|-------------------------|
||--7-7----7--7-------|-10--10--------5-5-------|
||o-7-7----7--7-------|-10--10--------5-5-------|
||--7-7----7--7-------|-10--10--------5-5-------|
|
|   Gtr II
|   H      E.    E. E    E.     E. Q.      E. S
||--------------------|-------------------------|
||o-------------------|-------------------------|
||---------7-----5--4-|--5------4----------4----|
||---------x-----x--x-|--x------x--5-------x----|
||o--------5-----3--2-|--3------2--x-------2----|
||--------------------|------------5------------|


  A5                  C5            G5
  E Q.   E  Q.         E   Q.       E Q.
|-------------------|---------------------------||
|-------------------|--------------------------o||
|-------------------|---------------------------||
|-7-7----7--7-------|-10--10--------5-5---------||
|-7-7----7--7-------|-10--10--------5-5--------o||
|-7-7----7--7-------|-10--10--------5-5---------||
|
| H      E.    E. E    E.     E. Q.      E. S
|-------------------|---------------------------||
|-------------------|--------------------------o||
|--------7-----5--4-|--5------4----------4------||
|--------x-----x--x-|--x------x--5-------x------||
|--------5-----3--2-|--3------2--x-------2-----o||
|-------------------|------------5--------------||


 Pre-Verse
  Fmaj7
  Q  E S S S E. E E   E E E E Q  E S S   S E. E E E E E E
|-5----5-5-5----5-5-|---5-5---5----5-5-|-5----5-5---5-5----|
|-5----5-5-5----5-5-|---5-5---5----5-5-|-5----5-5---5-5----|
|-5----5-5-5----5-5-|---5-5---5----5-5-|-5----5-5---5-5----|
|-3----3-3-3----3-3-|---3-3---3----3-3-|-3----3-3---3-3----|
|-3----3-3-3----3-3-|---3-3---3----3-3-|-3----3-3---3-3----|
|-3----3-3-3----3-3-|---3-3---3----3-3-|-3----3-3---3-3----|


   Verse
    N.C.
    S S S S S S S S S S S S S S S S   S S S S S S S S S S S S S S S S   4x
||----------------------------------|-----------------------------------||
||o---------------------------------|----------------------------------o||
||----------------------------------|-----------------------------------||
||----------------------------------|-----------------------------------||
||o-----------------3p2-------------|-----------------3p2-----------2--o||
||--x-0-2-2-5-2-2-2-----0-0-2-2-5-2-|-2-0-2-2-5-2-2-2-----0-0-2-2-5-----||


                      D5  E5  G5N.C.                    D5  E5  G5N.C.
  S S S S S S S S S S S S S S S S   S S S S S S S S S S S S S S S S
|---------------------------------|---------------------------------|
|---------------------------------|---------------------------------|
|---------------------------------|---------------------------------|
|-x-x-x-x-x-x-x-x-----------------|-x-x-x-x-x-x-x-x-----------------|
|-x-x-x-x-x-x-x-x-3p2-0-0-2-2-5-2-|-x-x-x-x-x-x-x-x-3p2-0-0-2-2-5-2-|
|-x-x-x-x-x-x-x-x-----0-0-2-2-5---|-x-x-x-x-x-x-x-x-----0-0-2-2-5---|


                      D5  E5  G5N.C.
  S S S S S S S S S S S S S S S S   S S S S S S S S S S S S S S S S
|---------------------------------|---------------------------------|
|---------------------------------|---------------------------------|
|---------------------------------|-5-5-5-5-5-5-5-5-5-5-5-5-5-5-5-5-|
|-x-x-x-x-x-x-x-x-----------------|-x-x-x-x-x-x-x-x-x-x-x-x-x-x-x-x-|
|-x-x-x-x-x-x-x-x-3p2-0-0-2-2-5-2-|-3-3-3-3-3-3-3-3-3-3-3-3-3-3-3-3-|
|-x-x-x-x-x-x-x-x-----0-0-2-2-5---|---------------------------------|


 Pre-Chorus
                      D5  E5  G5B N.C.                  D5  E5  G5N.C.
  S S S S S S S S S S S S S S S S   S S S S S S S S S S S S S S S S
|---------------------------------|---------------------------------|
|---------------------------------|---------------------------------|
|---------------------------------|---------------------------------|
|-x-x-x-x-x-x-x-x-----------------|-x-x-x-x-x-x-x-x-----------------|
|-x-x-x-x-x-x-x-x-3p2-0-0-2-2-5-2-|-x-x-x-x-x-x-x-x-3p2-0-0-2-2-5-2-|
|-x-x-x-x-x-x-x-x-----0-0-2-2-5---|-x-x-x-x-x-x-x-x-----0-0-2-2-5---|


                      D5  E5  G5N.C.
  S S S S S S S S S S S S S S S S   S E E E S S S E  S  S  E
|---------------------------------|---------------------------|
|---------------------------------|---------------------------|
|---------------------------------|-5-5-5-5-5-9-9-9-12-12-12--|
|-x-x-x-x-x-x-x-x-----------------|-x-x-x-x-x-x-x-x--x--x--x--|
|-x-x-x-x-x-x-x-x-3p2-0-0-2-2-5-2-|-3-3-3-3-3-7-7-7-10-10-10--|
|-x-x-x-x-x-x-x-x-----0-0-2-2-5---|---------------------------|


    A5                  C5            G5
    E Q.   E  Q.         E   Q.       E Q.
||--------------------|-------------------------|
||o-------------------|-------------------------|
||--------------------|-------------------------|
||--7-7----7--7-------|-10--10--------5-5-------|
||o-7-7----7--7-------|-10--10--------5-5-------|
||--7-7----7--7-------|-10--10--------5-5-------|
|
|   Gtr II
|   H      E.    E. E    E.     E. Q.      E. S
||--------------------|-------------------------|
||o-------------------|-------------------------|
||---------7-----5--4-|--5------4----------4----|
||---------x-----x--x-|--x------x--5-------x----|
||o--------5-----3--2-|--3------2--x-------2----|
||--------------------|------------5------------|


  A5                  C5            G5
  E Q.   E  Q.         E   Q.       E Q.
|-------------------|---------------------------||
|-------------------|--------------------------o||
|-------------------|---------------------------||
|-7-7----7--7-------|-10--10--------5-5---------||
|-7-7----7--7-------|-10--10--------5-5--------o||
|-7-7----7--7-------|-10--10--------5-5---------||
|
| H      E.    E. E    E.     E. Q.      E. S
|-------------------|---------------------------||
|-------------------|--------------------------o||
|--------7-----5--4-|--5------4----------4------||
|--------x-----x--x-|--x------x--5-------x------||
|--------5-----3--2-|--3------2--x-------2-----o||
|-------------------|------------5--------------||


 Interlude
  Fmaj7
  Q  +E  S S S +E. E E   +E  E E +E  Q  +E  S S   S +E. E E +E  E E +E
|-5--(5)-5-5-5-(5)-5-5-|-(5)-5-5-(5)-5--(5)-5-5-|-5-(5)-5-5-(5)-5-5-(5)--|
|-5--(5)-5-5-5-(5)-5-5-|-(5)-5-5-(5)-5--(5)-5-5-|-5-(5)-5-5-(5)-5-5-(5)--|
|-5--(5)-5-5-5-(5)-5-5-|-(5)-5-5-(5)-5--(5)-5-5-|-5-(5)-5-5-(5)-5-5-(5)--|
|-3--(3)-3-3-3-(3)-3-3-|-(3)-3-3-(3)-3--(3)-3-3-|-3-(3)-3-3-(3)-3-3-(3)--|
|-3--(3)-3-3-3-(3)-3-3-|-(3)-3-3-(3)-3--(3)-3-3-|-3-(3)-3-3-(3)-3-3-(3)--|
|-3--(3)-3-3-3-(3)-3-3-|-(3)-3-3-(3)-3--(3)-3-3-|-3-(3)-3-3-(3)-3-3-(3)--|


    E5    G5      N.C.      G5A5 E5      G5E5    N.C.    G5A5
    Q  Q  S E E S S S   S S E Q  Q  Q    S E E S S S S S E Q
||--------------------|----------------|-----------------------||
||o-------------------|----------------|----------------------o||
||--------------------|----------------|-----------------------||
||--2--2--5-2-2-2-----|-----5-7--2--2--|-5-2-2-2---------5-7---||
||o-2--2--5-2-2-2-3p2-|-3p2-5-7--2--2--|-5-2-2-2-3p2-3p2-5-7--o||
||--2--2--5-2-2-2-----|-----5-7--2--2--|-5-2-2-2---------5-7---||


    Fmaj7
    Q  E S S S E. E E   E E E E Q  E S S   S E. E E E E E E
||--5----5-5-5----5-5-|---5-5---5----5-5-|-5----5-5---5-5----||
||o-5----5-5-5----5-5-|---5-5---5----5-5-|-5----5-5---5-5---o||
||--5----5-5-5----5-5-|---5-5---5----5-5-|-5----5-5---5-5----||
||--3----3-3-3----3-3-|---3-3---3----3-3-|-3----3-3---3-3----||
||o-3----3-3-3----3-3-|---3-3---3----3-3-|-3----3-3---3-3---o||
||--3----3-3-3----3-3-|---3-3---3----3-3-|-3----3-3---3-3----||


  G/E                                                       Fmaj7
  Q  E S S S E. E E   E E E E Q  E S S   S E. E E E E E E   Q  E S S S E. E E
|-------------------|------------------|------------------|-5----5-5-5----5-5--|
|-------------------|------------------|------------------|-5----5-5-5----5-5--|
|-------------------|------------------|------------------|-5----5-5-5----5-5--|
|-5----5-5-5----5-5-|---5-5---5----5-5-|-5----5-5---5-5---|-3----3-3-3----3-3--|
|-2----2-2-2----2-2-|---2-2---2----2-2-|-2----2-2---2-2---|-3----3-3-3----3-3--|
|-2----2-2-2----2-2-|---2-2---2----2-2-|-2----2-2---2-2---|-3----3-3-3----3-3--|


                                        G/E
  E E E E Q  E S S   S E. E E E E E E   Q  E S S S E. E E
|---5-5---5----5-5-|-5----5-5---5-5---|-------------------|
|---5-5---5----5-5-|-5----5-5---5-5---|-------------------|
|---5-5---5----5-5-|-5----5-5---5-5---|-------------------|
|---3-3---3----3-3-|-3----3-3---3-3---|-5----5-5-5----5-5-|
|---3-3---3----3-3-|-3----3-3---3-3---|-2----2-2-2----2-2-|
|---3-3---3----3-3-|-3----3-3---3-3---|-2----2-2-2----2-2-|


                                    2/4
  E E E E Q  E S S   S E. E E H      H
|------------------|---------------|------|
|------------------|---------------|------|
|------------------|---------------|------|
|---5-5---5----5-5-|-5----5-5------|------|
|---2-2---2----2-2-|-2----2-2------|------|
|---2-2---2----2-2-|-2----2-2------|------|


 Bridge
  N.C.
 4/4
  E E E E E E E E   E E E E E E E E   E E E E E E E E   E E E E E E E S S
|-----------------|-----------------|-----------------|--------------------|
|-----------------|-----------------|-----------------|--------------------|
|-------------5-5-|-4-4-------------|-----5-5-4-4-----|--------------------|
|---------5-5-----|-----5-5---------|-5-5---------5-5-|---------5-5-7-x-x--|
|-----2-2---------|-------------2-2-|-----------------|-----3-3-------x-x--|
|-2-2-------------|---------2-2-----|-----------------|-3-3-----------x-x--|


  S S S S S S S S S S  S  S  S  S  S  S
|---------------------------------------|
|---------------------------------------|
|---------------------------------------|
|-7-9-9-9-9-9-9-9-9-9-10-10-10-10-10-10-|
|-x-x-x-x-x-x-x-x-x-x--x--x--x--x--x--x-|
|-7-9-9-9-9-9-9-9-9-9-10-10-10-10-10-10-|


  E E E E E E E S S   S S S S S S S S S S S S S S S S
|-------------------|----------------------------------|
|-------------------|----------------------------------|
|-------------------|-7-9-9-9-9-9-9-9-7-7-7-7-5-5-5-5--|
|---------5-5-7-x-x-|-x-x-x-x-x-x-x-x-x-x-x-x-x-x-x-x--|
|-----3-3-------x-x-|-5-7-7-7-7-7-7-7-5-5-5-5-3-3-3-3--|
|-3-3-----------x-x-|----------------------------------|


  E E E E E E E E   E E E E E E E E   E E E E E E E E   E E E E E E E S S
|-----------------|-----------------|-----------------|-------------------|
|-----------------|-----------------|-----------------|-------------------|
|-------------5-5-|-4-4-------------|-----5-5-4-4-----|-------------------|
|---------5-5-----|-----5-5---------|-5-5---------5-5-|---------5-5-7-x-x-|
|-----2-2---------|-------------2-2-|-----------------|-----3-3-------x-x-|
|-2-2-------------|---------2-2-----|-----------------|-3-3-----------x-x-|


  S S S S S S S S S S  S  S  S  S  S  S   E E E E E E E S S
|---------------------------------------|-------------------|
|---------------------------------------|-------------------|
|---------------------------------------|-------------------|
|-7-9-9-9-9-9-9-9-9-9-10-10-10-10-10-10-|---------5-5-7-x-x-|
|-x-x-x-x-x-x-x-x-x-x--x--x--x--x--x--x-|-----3-3-------x-x-|
|-7-9-9-9-9-9-9-9-9-9-10-10-10-10-10-10-|-3-3-----------x-x-|


  S S S S S S S S  S  S  S  S  S  S  S  S
|------------------------------------------|
|------------------------------------------|
|-7-9-9-9-9-9-9-9-12-12-12-12-12-12-12-12--|
|-x-x-x-x-x-x-x-x--x--x--x--x--x--x--x--x--|
|-5-7-7-7-7-7-7-7-10-10-10-10-10-10-10-10--|
|------------------------------------------|


   Chorus
    A5                  C5            G5
    E Q.   E  Q.         E   Q.       E Q.
||--------------------|-------------------------|
||o-------------------|-------------------------|
||--------------------|-------------------------|
||--7-7----7--7-------|-10--10--------5-5-------|
||o-7-7----7--7-------|-10--10--------5-5-------|
||--7-7----7--7-------|-10--10--------5-5-------|
|
|   Gtr II
|   H      E.    E. E    E.     E. Q.      E. S
||--------------------|-------------------------|
||o-------------------|-------------------------|
||---------7-----5--4-|--5------4----------4----|
||---------x-----x--x-|--x------x--5-------x----|
||o--------5-----3--2-|--3------2--x-------2----|
||--------------------|------------5------------|


  A5                  C5            G5
  E Q.   E  Q.         E   Q.       E Q.
|-------------------|---------------------------||
|-------------------|--------------------------o||
|-------------------|---------------------------||
|-7-7----7--7-------|-10--10--------5-5---------||
|-7-7----7--7-------|-10--10--------5-5--------o||
|-7-7----7--7-------|-10--10--------5-5---------||
|
| H      E.    E. E    E.     E. Q.      E. S
|-------------------|---------------------------||
|-------------------|--------------------------o||
|--------7-----5--4-|--5------4----------4------||
|--------x-----x--x-|--x------x--5-------x------||
|--------5-----3--2-|--3------2--x-------2-----o||
|-------------------|------------5--------------||


    E5                    G5          A5
    E Q.    E  Q.          E  Q.      E Q.
||----------------------|---------------------|
||o---------------------|---------------------|
||----------------------|---------------------|
||--2-2-----2--2--------|--5--5-------7-7-----|
||o-2-2-----2--2--------|--5--5-------7-7-----|
||--2-2-----2--2--------|--5--5-------7-7-----|
|
|   H       E.     E. E    E.    E. E Q    Q
||----------------------|---------------------|
||o---------------------|---------------------|
||---------12-----11--9-|-11-----9--7-9----7--|
||----------x------x--x-|--x-----x--x-x----x--|
||o--------10------9--7-|--9-----7--5-7----5--|
||----------------------|---------------------|


  E5                    G5          A5
  E Q.    E  Q.          E  Q.      E Q.
|---------------------|-----------------------||
|---------------------|----------------------o||
|---------------------|-----------------------||
|-2-2-----2--2--------|--5--5-------7-7-------||
|-2-2-----2--2--------|--5--5-------7-7------o||
|-2-2-----2--2--------|--5--5-------7-7-------||
|
| H       E.     E. E    E.    E. E Q    Q
|---------------------|-----------------------||
|---------------------|----------------------o||
|--------12-----11--9-|-11-----9--7-9----7----||
|---------x------x--x-|--x-----x--x-x----x----||
|--------10------9--7-|--9-----7--5-7----5---o||
|---------------------|-----------------------||


 Outro
  F5
  Q  E S S S E. E E   E E E E Q  E S S   S E. E E E E E E
|-------------------|------------------|------------------|
|-------------------|------------------|------------------|
|-5----5-5-5----5-5-|---5-5---5----5-5-|-5----5-5---5-5---|
|-3----3-3-3----3-3-|---3-3---3----3-3-|-3----3-3---3-3---|
|-3----3-3-3----3-3-|---3-3---3----3-3-|-3----3-3---3-3---|
|-3----3-3-3----3-3-|---3-3---3----3-3-|-3----3-3---3-3---|


  G/E
  Q  E S S S E. E E   E E E E Q  E S S   E E E E H
|-------------------|------------------|--------------*|
|-------------------|------------------|--------------*|
|-------------------|------------------|--------------*|
|-5----5-5-5----5-5-|---5-5---5----5-5-|-5---5-5------*|
|-2----2-2-2----2-2-|---2-2---2----2-2-|-2---2-2------*|
|-2----2-2-2----2-2-|---2-2---2----2-2-|-2---2-2------*|




--------------------------------------------------------------------------------


Duration Legend
---------------
W - whole; H - half; Q - quarter; E - 8th; S - 16th; T - 32nd; X - 64th; a - acciaccatura
+ - note tied to previous; . - note dotted; .. - note double dotted
Uncapitalized letters represent notes that are staccato (1/2 duration)
Irregular groupings are notated above the duration line
Duration letters will always appear directly above the note/fret number it represents the
duration for.  Duration letters with no fret number below them represent rests.  Multi-
bar rests are notated in the form Wxn, where n is the number of bars to rest for.  Low
melody durations appear below the staff

Tablature Legend
----------------
 h   - hammer-on
 p   - pull-off
 b   - bend
 pb  - pre-bend
 r   - bend release (if no number after the r, then release immediately)
 /\  - slide into or out of (from/to "nowhere")
 s   - legato slide
 S   - shift slide
 - natural harmonic
[n]  - artificial harmonic
n(n) - tapped harmonic
 ~   - vibrato
 tr  - trill
 T   - tap
 TP  - trem. picking
 PM  - palm muting
\n/  - tremolo bar dip; n = amount to dip
 \n  - tremolo bar down
 n/  - tremolo bar up
/n\  - tremolo bar inverted dip
 =   - hold bend; also acts as connecting device for hammers/pulls
 <> - volume swell (louder/softer)
 x   - on rhythm slash represents muted slash
 o   - on rhythm slash represents single note slash

Misc Legend
-----------
 |  - bar
||  - double bar
||o - repeat start
o|| - repeat end
*|  - double bar (ending)
 :  - bar (freetime)
 $  - Segno
 &  - Coda
Tempo markers -  = BPM(8/16=s8/s16), where s8 = swing 8ths, s16 = swing 16ths


Tap to rate this tab
 
# A B C D E F G H I J K L M N O P Q R S T U V W X Y Z