Song name
# A B C D E F G H I J K L M N O P Q R S T U V W X Y Z

Papa Roach - Tyranny Of Normality tab

Gtr I (B F# B E G# C#) - 'Jerry - Main Guitar'


 Intro
          Em11/D5 C5  D5     C5   D5      F5 D5 C5 D5C5 D5
 4/4
  Gtr I
  H    Q  Q    Q   E.  E. Q   E    E.. Q   S  S  S S  S  E..
|---------0--|------------------|----------------------------|
|---------0--|------------------|----------------------------|
|---------0--|------------------|----------------------------|
|---------0--|-0--10--12--0--10-|-12---0--15-12-10-0-10-12---|
|---------0--|-0--10--12--0--10-|-12---0--15-12-10-0-10-12---|
|---------0--|-0--10--12--0--10-|-12---0--15-12-10-0-10-12---|


     C5  D5     C5   D5      F5D5G5D5F5
  Q   E.  E. Q   E    E.. Q  E S E S S. +S
|------------------|-------------------------|
|------------------|-------------------------|
|------------------|-------------------------|
|-0--10--12--0--10-|-12---0--3-0-5-0-3--(3)--|
|-0--10--12--0--10-|-12---0--3-0-5-0-3--(3)--|
|-0--10--12--0--10-|-12---0--3-0-5-0-3--(3)--|


  D5 C5  D5     C5   D5      F5 D5 C5 D5C5 D5
  Q   E.  E. Q   E    E.. Q   S  S  S S  S  E..
|------------------|----------------------------|
|------------------|----------------------------|
|------------------|----------------------------|
|-0--10--12--0--10-|-12---0--15-12-10-0-10-12---|
|-0--10--12--0--10-|-12---0--15-12-10-0-10-12---|
|-0--10--12--0--10-|-12---0--15-12-10-0-10-12---|


     C5  D5     C5   D5      N.C.
  Q   E.  E. Q   E    E.. Q  S S S S S S S S +T
|------------------|------------------------------|
|------------------|------------------------------|
|------------------|---------7-7-7-7-7-7-7-7-(7)--|
|-0--10--12--0--10-|-12---0-----------------------|
|-0--10--12--0--10-|-12---0--5-5-5-5-5-5-5-5-(5)--|
|-0--10--12--0--10-|-12---0-----------------------|


 Verse
    D5      N.C.            D5    N.C.
  E  E  E E  E  E.. E T   E  E  E  E  E  E  E  E
|-----------------------|------------------------|
|-----------------------|------------------------|
|-----------10--9-------|---------10-10-10--9--9-|
|-x-12-12-x-12-12-------|-x-12-12-12-12-12-12-12-|
|-x-12-12-x-------------|-x-12-12----------------|
|-x-12-12-x-------------|-x-12-12----------------|


    D5      N.C.            D5    N.C.
  E  E  E E  E  E.. E T   E  E  E  E  E  E  E  E
|-----------------------|------------------------|
|-----------------------|------------------------|
|-----------10--9-------|---------10-10-10--9--9-|
|-x-12-12-x-12-12-------|-x-12-12-12-12-12-12-12-|
|-x-12-12-x-------------|-x-12-12----------------|
|-x-12-12-x-------------|-x-12-12----------------|


    D5      N.C.            D5    N.C.
  E  E  E E  E  E.. E T   E  E  E  E  E  E  E  E
|-----------------------|------------------------|
|-----------------------|------------------------|
|-----------10--9-------|---------10-10-10--9--9-|
|-x-12-12-x-12-12-------|-x-12-12-12-12-12-12-12-|
|-x-12-12-x-------------|-x-12-12----------------|
|-x-12-12-x-------------|-x-12-12----------------|


    D5      N.C.            D5 N.C.
  E  E  E E  E  E.. E T   E  E  S  S..  S  S Q  E S X
|-----------------------|------------------------------|
|-----------------------|------------------------------|
|-----------10--9-------|------10--9----9-10-----------|
|-x-12-12-x-12-12-------|-x-12-12-12---12-12-----------|
|-x-12-12-x-------------|-x-12-------------------------|
|-x-12-12-x-------------|-x-12-------------------------|


 Chorus
  D5 C5  D5     C5   D5      F5 D5 C5 D5C5 D5
  Q   E.  E. Q   E    E.. Q   S  S  S S  S  E..
|------------------|----------------------------|
|------------------|----------------------------|
|------------------|----------------------------|
|-0--10--12--0--10-|-12---0--15-12-10-0-10-12---|
|-0--10--12--0--10-|-12---0--15-12-10-0-10-12---|
|-0--10--12--0--10-|-12---0--15-12-10-0-10-12---|


     C5  D5     C5   D5      F5D5G5D5F5
  Q   E.  E. Q   E    E.. Q  E S E S S. +S
|------------------|------------------------|
|------------------|------------------------|
|------------------|------------------------|
|-0--10--12--0--10-|-12---0--3-0-5-0-3--(3)-|
|-0--10--12--0--10-|-12---0--3-0-5-0-3--(3)-|
|-0--10--12--0--10-|-12---0--3-0-5-0-3--(3)-|


  D5 C5  D5     C5   D5      F5 D5 C5 D5C5 D5
  Q   E.  E. Q   E    E.. Q   S  S  S S  S  E..
|------------------|----------------------------|
|------------------|----------------------------|
|------------------|----------------------------|
|-0--10--12--0--10-|-12---0--15-12-10-0-10-12---|
|-0--10--12--0--10-|-12---0--15-12-10-0-10-12---|
|-0--10--12--0--10-|-12---0--15-12-10-0-10-12---|


     C5  D5     C5   D5      N.C.
  Q   E.  E. Q   E    E.. Q  S S S S S S S S +T
|------------------|------------------------------|
|------------------|------------------------------|
|------------------|---------7-7-7-7-7-7-7-7-(7)--|
|-0--10--12--0--10-|-12---0-----------------------|
|-0--10--12--0--10-|-12---0--5-5-5-5-5-5-5-5-(5)--|
|-0--10--12--0--10-|-12---0-----------------------|


 Verse
    D5      Dm N.C.         D5    N.C.
  E  E  E E  E  E.. E T   E  E  E  E  E  E  E  E
|-----------------------|------------------------|
|-----------------------|------------------------|
|-----------10--9-------|---------10-10-10--9--9-|
|-x-12-12-x-12-12-------|-x-12-12-12-12-12-12-12-|
|-x-12-12-x-------------|-x-12-12----------------|
|-x-12-12-x-------------|-x-12-12----------------|


    D5      N.C.            D5    N.C.
  E  E  E E  E  E.. E T   E  E  E  E  E  E  E  E
|-----------------------|------------------------|
|-----------------------|------------------------|
|-----------10--9-------|---------10-10-10--9--9-|
|-x-12-12-x-12-12-------|-x-12-12-12-12-12-12-12-|
|-x-12-12-x-------------|-x-12-12----------------|
|-x-12-12-x-------------|-x-12-12----------------|


    D5      N.C.            D5    N.C.
  E  E  E E  E  E.. E T   E  E  E  E  E  E  E  E
|-----------------------|------------------------|
|-----------------------|------------------------|
|-----------10--9-------|---------10-10-10--9--9-|
|-x-12-12-x-12-12-------|-x-12-12-12-12-12-12-12-|
|-x-12-12-x-------------|-x-12-12----------------|
|-x-12-12-x-------------|-x-12-12----------------|


    D5      N.C.            D5 N.C.
  E  E  E E  E  E.. E T   E  E  S  S..  S  S Q  E S X
|-----------------------|------------------------------|
|-----------------------|------------------------------|
|-----------10--9-------|------10--9----9-10-----------|
|-x-12-12-x-12-12-------|-x-12-12-12---12-12-----------|
|-x-12-12-x-------------|-x-12-------------------------|
|-x-12-12-x-------------|-x-12-------------------------|


 Chorus
  D5 C5  D5     C5   D5      F5 D5 C5 D5C5 D5
  Q   E.  E. Q   E    E.. Q   S  S  S S  S  E..
|------------------|----------------------------|
|------------------|----------------------------|
|------------------|----------------------------|
|-0--10--12--0--10-|-12---0--15-12-10-0-10-12---|
|-0--10--12--0--10-|-12---0--15-12-10-0-10-12---|
|-0--10--12--0--10-|-12---0--15-12-10-0-10-12---|


     C5  D5     C5   D5      F5D5G5D5F5
  Q   E.  E. Q   E    E.. Q  E S E S S. +S
|------------------|------------------------|
|------------------|------------------------|
|------------------|------------------------|
|-0--10--12--0--10-|-12---0--3-0-5-0-3--(3)-|
|-0--10--12--0--10-|-12---0--3-0-5-0-3--(3)-|
|-0--10--12--0--10-|-12---0--3-0-5-0-3--(3)-|


  D5 C5  D5     C5   D5      F5 D5 C5 D5C5 D5
  Q   E.  E. Q   E    E.. Q   S  S  S S  S  E..
|------------------|----------------------------|
|------------------|----------------------------|
|------------------|----------------------------|
|-0--10--12--0--10-|-12---0--15-12-10-0-10-12---|
|-0--10--12--0--10-|-12---0--15-12-10-0-10-12---|
|-0--10--12--0--10-|-12---0--15-12-10-0-10-12---|


     C5  D5     C5   D5      F5D5G5D5A5
  Q   E.  E. Q   E    E.. Q  E S E S S. +S
|------------------|------------------------|
|------------------|------------------------|
|------------------|------------------------|
|-0--10--12--0--10-|-12---0--3-0-5-0-7--(7)-|
|-0--10--12--0--10-|-12---0--3-0-5-0-7--(7)-|
|-0--10--12--0--10-|-12---0--3-0-5-0-7--(7)-|


   Bridge
    Bb5
    S S S S  S  S  S  S  S  S  S  S  S  S  S  S
||----------------------------------------------|
||o---------------------------------------------|
||----------10-10-10-10-10-10-10-10-10-10-10-10-|
||--8-8-8-8--8--8--8--8--8--8--8--8--8--8--8--8-|
||o-8-8-8-8--8--8--8--8--8--8--8--8--8--8--8--8-|
||--8-8-8-8--8--8--8--8--8--8--8--8--8--8--8--8-|


  Fmaj7sus4/Bb
  S S S S S S S S S S S S S S S S
|----------------------------------|
|----------------------------------|
|-9-9-9-9-9-9-9-9-9-9-9-9-9-9-9-9--|
|-8-8-8-8-8-8-8-8-8-8-8-8-8-8-8-8--|
|-8-8-8-8-8-8-8-8-8-8-8-8-8-8-8-8--|
|-8-8-8-8-8-8-8-8-8-8-8-8-8-8-8-8--|


  D5 F5 G5 D5 F5  G5  D5 F5 D5 C5 D5C5 D5
  Q  E. E. Q  E   E.. Q   S  S  S S  S  E..  3x
|---------------|----------------------------||
|---------------|---------------------------o||
|---------------|----------------------------||
|-0--3--5--0--3-|-5---0--15-12-10-0-10-12----||
|-0--3--5--0--3-|-5---0--15-12-10-0-10-12---o||
|-0--3--5--0--3-|-5---0--15-12-10-0-10-12----||


  Bb5     Bb5
  S S S S  S  S  S  S  S  S  S  S  S  S  S  S
|---------------------------------------------|
|---------------------------------------------|
|---------10-10-10-10-10-10-10-10-10-10-10-10-|
|-8-8-8-8--8--8--8--8--8--8--8--8--8--8--8--8-|
|-8-8-8-8--8--8--8--8--8--8--8--8--8--8--8--8-|
|-8-8-8-8--8--8--8--8--8--8--8--8--8--8--8--8-|


  Fmaj7sus4/Bb
  S S S S S S S S S S S S S S S S
|---------------------------------|
|---------------------------------|
|-9-9-9-9-9-9-9-9-9-9-9-9-9-9-9-9-|
|-8-8-8-8-8-8-8-8-8-8-8-8-8-8-8-8-|
|-8-8-8-8-8-8-8-8-8-8-8-8-8-8-8-8-|
|-8-8-8-8-8-8-8-8-8-8-8-8-8-8-8-8-|


    D5
     S  S  S  S  S  S  S  S  S  S  S  S  S  S  S  S
||--------------------------------------------------|
||o-------------------------------------------------|
||--------------------------------------------------|
||--12-12-12-12-12-12-12-12-12-12-12-12-12-12-12-12-|
||o-12-12-12-12-12-12-12-12-12-12-12-12-12-12-12-12-|
||--12-12-12-12-12-12-12-12-12-12-12-12-12-12-12-12-|


   S  S  S  S  S  S  S  S  S  S  S  S  S  S  S S   3x
|--------------------------------------------------||
|-------------------------------------------------o||
|--------------------------------------------------||
|-12-12-12-12-12-12-12-12-12-12-12-12-12-12-12-0---||
|-12-12-12-12-12-12-12-12-12-12-12-12-12-12-12-0--o||
|-12-12-12-12-12-12-12-12-12-12-12-12-12-12-12-0---||


   S  S  S  S  S  S  S  S  S  S  S  S  S  S  S  S
|-------------------------------------------------|
|-------------------------------------------------|
|-------------------------------------------------|
|-12-12-12-12-12-12-12-12-12-12-12-12-12-12-12-12-|
|-12-12-12-12-12-12-12-12-12-12-12-12-12-12-12-12-|
|-12-12-12-12-12-12-12-12-12-12-12-12-12-12-12-12-|


   S  S  S  S  S  S  S  S H
|------------------------------|
|------------------------------|
|------------------------------|
|-12-12-12-12-12-12-12-12------|
|-12-12-12-12-12-12-12-12------|
|-12-12-12-12-12-12-12-12------|


   Chorus
       C5  D5     C5   D5      F5 D5 C5 D5C5 D5
    Q   E.  E. Q   E    E.. Q   S  S  S S  S  E..
||-------------------|----------------------------|
||o------------------|----------------------------|
||-------------------|----------------------------|
||--0--10--12--0--10-|-12---0--15-12-10-0-10-12---|
||o-0--10--12--0--10-|-12---0--15-12-10-0-10-12---|
||--0--10--12--0--10-|-12---0--15-12-10-0-10-12---|


     C5  D5     C5   D5      F5D5G5D5F5
  Q   E.  E. Q   E    E.. Q  E S E S S. +S
|------------------|--------------------------||
|------------------|-------------------------o||
|------------------|--------------------------||
|-0--10--12--0--10-|-12---0--3-0-5-0-3--(3)---||
|-0--10--12--0--10-|-12---0--3-0-5-0-3--(3)--o||
|-0--10--12--0--10-|-12---0--3-0-5-0-3--(3)---||


 Outro
  D5 F5 G5 D5 C5   D5      F5 D5 C5 D5C5 D5
  Q  E. E. Q   E    E.. Q   S  S  S S  S  E..
|----------------|----------------------------|
|----------------|----------------------------|
|----------------|----------------------------|
|-0--3--5--0--10-|-12---0--15-12-10-0-10-12---|
|-0--3--5--0--10-|-12---0--15-12-10-0-10-12---|
|-0--3--5--0--10-|-12---0--15-12-10-0-10-12---|


     F5 G5 D5 C5   D5        F5    D5F5
  Q  E. E. Q   E    E.. Q  S E +S  S E S T
|----------------|-------------------------*|
|----------------|-------------------------*|
|----------------|-------------------------*|
|-0--3--5--0--10-|-12---0--0-3-(3)-0-3-----*|
|-0--3--5--0--10-|-12---0--0-3-(3)-0-3-----*|
|-0--3--5--0--10-|-12---0--0-3-(3)-0-3-----*|




--------------------------------------------------------------------------------


Duration Legend
---------------
W - whole; H - half; Q - quarter; E - 8th; S - 16th; T - 32nd; X - 64th; a - acciaccatura
+ - note tied to previous; . - note dotted; .. - note double dotted
Uncapitalized letters represent notes that are staccato (1/2 duration)
Irregular groupings are notated above the duration line
Duration letters will always appear directly above the note/fret number it represents the
duration for.  Duration letters with no fret number below them represent rests.  Multi-
bar rests are notated in the form Wxn, where n is the number of bars to rest for.  Low
melody durations appear below the staff

Tablature Legend
----------------
 h   - hammer-on
 p   - pull-off
 b   - bend
 pb  - pre-bend
 r   - bend release (if no number after the r, then release immediately)
 /\  - slide into or out of (from/to "nowhere")
 s   - legato slide
 S   - shift slide
 - natural harmonic
[n]  - artificial harmonic
n(n) - tapped harmonic
 ~   - vibrato
 tr  - trill
 T   - tap
 TP  - trem. picking
 PM  - palm muting
\n/  - tremolo bar dip; n = amount to dip
 \n  - tremolo bar down
 n/  - tremolo bar up
/n\  - tremolo bar inverted dip
 =   - hold bend; also acts as connecting device for hammers/pulls
 <> - volume swell (louder/softer)
 x   - on rhythm slash represents muted slash
 o   - on rhythm slash represents single note slash

Misc Legend
-----------
 |  - bar
||  - double bar
||o - repeat start
o|| - repeat end
*|  - double bar (ending)
 :  - bar (freetime)
 $  - Segno
 &  - Coda
Tempo markers -  = BPM(8/16=s8/s16), where s8 = swing 8ths, s16 = swing 16ths


Tap to rate this tab
 
# A B C D E F G H I J K L M N O P Q R S T U V W X Y Z