Song name
# A B C D E F G H I J K L M N O P Q R S T U V W X Y Z

Papa Roach - Not Listening tab

ACCIDENTALLY PUT THIS WITH GUITAR TABS. SUPPOSED TO BE BASS TAB

Band: Papa Roach
Album: Getting Away With Murder
Song: "Not Listening"
Tabbed by: Cody Fuller, "rockerc"
Tuning: D A D G


This tab is correct. The other tabs are totally incorrect. Tobin doesn't use a 5 string 
these. I've watched the live DVD extensively to get this right and he uses a 4 string 
to drop D.

(just guitar first)

Intro:

G------------------------------------------------------------------|
D------------------------------------------------------------------|
A-5-5-5-5-5-5-5-5-----------------4-4-4-4-4-4-4-4------------------|
D-----------------5-5-5-5-5-5-5-5------------------4-4-4-4-4-4-4-4-|

Intro Pt. 2
G--------------------------------------------------------------|
D--------------------------------------------------------------|
A-5-5-5-5-5-5-5-5-----------------4-4-4-4-4-4-4-4--------------|
D-----------------5-5-5-5-5-5-5-5------------------4-4-4-4-2-2-|

G------------------------------------------------------------------|
D------------------------------------------------------------------|
A-5-5-5-5-5-5-5-5-----------------4-4-4-4-4-4-4-4------------------|
D-----------------5-5-5-5-5-5-5-5------------------4-4-4-4-2-2-2-2-|

Verse 1

G-----------------------------------------------------|
D----------------------6------------------------------|
A---------6----4-4--4----4---------10-----------------| x3
D-4-4--4----4---------------8-8--8----8--8-8--8--6-4--|

Pre-Chorus

G-----------------------------------|
D-----------------------------------|
A-----------------------------------|
D-4-4--4-4--6-6--6-6--8-8--8-8--6-6-|

Chorus

G--------------------------------------------------------------|
D--------------------------------------------------------------|
A-5-5-5-5-5-5-5-5-----------------4-4-4-4-4-4-4-4--------------|
D-----------------5-5-5-5-5-5-5-5------------------4-4-4-4-2-2-|


G-----------------------------------------------------------------|
D-----------------------------------------------------------------|
A-5-5-5-5-5-5-5-5---------------------------------4-4-4-4-4-4-4-4-|
D-----------------5-5-5-5-5-5-5-5-4-4-4-4-4-4-4-4-----------------|

After Chorus

G---------------------|
D---------------------|
A-----9-8-------9-8---|
D-0-0------8-8------0-|

Verse 2(just guitar, vocals, and drums for the first half of it)

G----------------------------------------|
D----------------------------------------|
A----------------------------------------|
D-4-4--4-4--6-6--6-6--8-8--8-8--6-6--4-0-|

G-----------------------------------------------------|
D----------------------6------------------------------|
A---------6----4-4--4----4---------10-----------------| x3
D-4-4--4----4---------------8-8--8----8--8-8--8--6-4--|

Repeat Pre-Chorus
Repeat Chorus

Bridge

G-----------------------------------------------------------------|
D-----------------------------------------------------------------|
A-5-5-5-5-9-9-8-8-----------------4-4-4-4-4-4-4-4-----------------|
D-----------------5-5-5-5-5-5-5-5-----------------4-4-4-4-4-4-4-4-|

G-----------------------------------------------------------------|
D-----------------------------------------------------------------|
A-5-5-5-5-5-5-5-5---------------------------------4-4-4-4-4-4-4-4-|
D-----------------5-5-5-5-5-5-5-5-4-4-4-4-4-4-4-4-----------------|

G------------------------------------------------------------------------|
D------------------------------------------------------------------------|
A------9-8--------------9-8--------------9-8--------------------9-8------|
D-0-0-------8-8----0-0-------8-8----0-0-------6--8--6/8----0-0-------8-8-|

G------------------------------------------------------------------|
D------------------------------------------------------------------|
A-8-8-8-8-8-8-8-8---------------------------------4-4-4-4-4-4-4-4--| x2
D-----------------8-8-8-8-8-8-8-8-4-4-4-4-4-4-4-4------------------|

Repeat Chorus

G-----------------------------------------------------------------|
D-----------------------------------------------------------------|
A-5-5-5-5-9-9-8-8-----------------4-4-4-4-4-4-4-4-----------------|
D-----------------5-5-5-5-5-5-5-5-----------------4-4-4-4-4-4-4-4-|

G-----------------------------------------------------------------|
D-----------------------------------------------------------------|
A-5-5-5-5-5-5-5-5---------------------------------4-4-4-4-4-4-4-4-|
D-----------------5-5-5-5-5-5-5-5-4-4-4-4-4-4-4-4-----------------|

Closing

G-----------------------------------------------------------------------------------------------------|
D-----------------------------------------------------------------------------------------------------|
A-------------------------------------8-8-8-8-9-----------------------------------------8-8-8-8-9-----|
D-3--2-3--2--8-8-8-8-9-----3--2-3--2---------------3--2-3--2--8-8-8-8-9-9-9--3--2-3--2----------------|
Tap to rate this tab
# A B C D E F G H I J K L M N O P Q R S T U V W X Y Z