Song name
# A B C D E F G H I J K L M N O P Q R S T U V W X Y Z

Papa Roach - M-80 tab

Gtr I (D A D G B E) - 'Untitled'
Gtr II (D A D G B E) - 'Untitled'


 Intro
  Q=87
  Bb5                     A5    A7sus4
 4/4
  Gtr I
   S  S  S  S  S  S  S  S  S  S  S  S  S  S  S  S
|-------------------------------10-10-10-10-10-10-|
|-11-11-11-11-11-11-11-11-10-10--8--8--8--8--8--8-|
|-10-10-10-10-10-10-10-10--9--9--7--7--7--7--7--7-|
|--8--8--8--8--8--8--8--8--7--7--7--7--7--7--7--7-|
|--8--8--8--8--8--8--8--8--7--7--7--7--7--7--7--7-|
|--8--8--8--8--8--8--8--8--7--7--7--7--7--7--7--7-|


  F5              G5
  S S S S S S S S S S S S S S S S
|----------------------------------|
|-6-6-6-6-6-6-6-6-8-8-8-8-8-8-8-8--|
|-5-5-5-5-5-5-5-5-7-7-7-7-7-7-7-7--|
|-3-3-3-3-3-3-3-3-5-5-5-5-5-5-5-5--|
|-3-3-3-3-3-3-3-3-5-5-5-5-5-5-5-5--|
|-3-3-3-3-3-3-3-3-5-5-5-5-5-5-5-5--|


  Bb5                     C5
   S  S  S  S  S  S  S  S  S  S  S  S  S  S  S  S
|-------------------------------------------------|
|-11-11-11-11-11-11-11-11-13-13-13-13-13-13-13-13-|
|-10-10-10-10-10-10-10-10-12-12-12-12-12-12-12-12-|
|--8--8--8--8--8--8--8--8-10-10-10-10-10-10-10-10-|
|--8--8--8--8--8--8--8--8-10-10-10-10-10-10-10-10-|
|--8--8--8--8--8--8--8--8-10-10-10-10-10-10-10-10-|


  D5       C5   N.CD5         C5 D5C5 N.C.
  Gtr II
  S S  S S  S S  S S S  S S S  S S  S  S
|----------------------------------------|
|----------------------------------------|
|---------------10--------------------10-|
|-0-0-12-0-10-0-10-0-0-12-0-0-10-0-10-10-|
|-0-0-12-0-10-0----0-0-12-0-0-10-0-10----|
|-0-0-12-0-10-0----0-0-12-0-0-10-0-10----|


   Verse
    D5       C5 D5N.CD5         C5 D5C5 N.C.
    Gtr I
    S S  S S  S S  S S S  S S S  S S  S  S
||-----------------------------------------|
||o----------------------------------------|
||----------------10--------------------10-|
||--0-0-12-0-10-0-10-0-0-12-0-0-10-0-10-10-|
||o-0-0-12-0-10-0----0-0-12-0-0-10-0-10----|
||--0-0-12-0-10-0----0-0-12-0-0-10-0-10----|


  D5       C5 D5N.CD5       C5       D5 C5
  S S  S S  S S  S S S  S S  S  S  S  S  S
|-------------------------------------------|
|-------------------------------------------|
|---------------10--------------------------|
|-0-0-12-0-10-0-10-0-0-12-0-10-10-10-12-10--|
|-0-0-12-0-10-0----0-0-12-0-10-10-10-12-10--|
|-0-0-12-0-10-0----0-0-12-0-10-10-10-12-10--|


  D5       C5 D5N.CD5         C5 D5C5 N.C.
  S S  S S  S S  S S S  S S S  S S  S  S
|----------------------------------------|
|----------------------------------------|
|---------------10--------------------10-|
|-0-0-12-0-10-0-10-0-0-12-0-0-10-0-10-10-|
|-0-0-12-0-10-0----0-0-12-0-0-10-0-10----|
|-0-0-12-0-10-0----0-0-12-0-0-10-0-10----|


  D5       C5 D5N.CD5       C5    N.CD5 C5
  S S  S S  S S  S S S  S S  S  S  S  S  S
|-------------------------------------------||
|------------------------------------------o||
|---------------10----------------10--------||
|-0-0-12-0-10-0-10-0-0-12-0-10-10-10-12-10--||
|-0-0-12-0-10-0----0-0-12-0-10-10----12-10-o||
|-0-0-12-0-10-0----0-0-12-0-10-10----12-10--||


   Pre-Chorus
    Bb5                     A5    A7sus4
     S  S  S  S  S  S  S  S  S  S  S  S  S  S  S  S
||--------------------------------10-10-10-10-10-10-|
||o-11-11-11-11-11-11-11-11-10-10--8--8--8--8--8--8-|
||--10-10-10-10-10-10-10-10--9--9--7--7--7--7--7--7-|
||---8--8--8--8--8--8--8--8--7--7--7--7--7--7--7--7-|
||o--8--8--8--8--8--8--8--8--7--7--7--7--7--7--7--7-|
||---8--8--8--8--8--8--8--8--7--7--7--7--7--7--7--7-|


  F5              G5
  S S S S S S S S S S S S S S S S
|-----------------------------------||
|-6-6-6-6-6-6-6-6-8-8-8-8-8-8-8-8--o||
|-5-5-5-5-5-5-5-5-7-7-7-7-7-7-7-7---||
|-3-3-3-3-3-3-3-3-5-5-5-5-5-5-5-5---||
|-3-3-3-3-3-3-3-3-5-5-5-5-5-5-5-5--o||
|-3-3-3-3-3-3-3-3-5-5-5-5-5-5-5-5---||


  D5     C5 D5N.CD5         C5 D5C5 N.C.
  E  S S  S S  S S S  S S S  S S  S  S
|--------------------------------------|
|--------------------------------------|
|-------------10--------------------10-|
|-0-12-0-10-0-10-0-0-12-0-0-10-0-10-10-|
|-0-12-0-10-0----0-0-12-0-0-10-0-10----|
|-0-12-0-10-0----0-0-12-0-0-10-0-10----|


  D5     C5 D5N.CD5       C5       D5 C5
  E  S S  S S  S S S  S S  S  S  S  S  S
|----------------------------------------|
|----------------------------------------|
|-------------10-------------------------|
|-0-12-0-10-0-10-0-0-12-0-10-10-10-12-10-|
|-0-12-0-10-0----0-0-12-0-10-10-10-12-10-|
|-0-12-0-10-0----0-0-12-0-10-10-10-12-10-|


  D5     C5 D5N.CD5         C5 D5C5 N.C.
  E  S S  S S  S S S  S S S  S S  S  S
|--------------------------------------|
|--------------------------------------|
|-------------10--------------------10-|
|-0-12-0-10-0-10-0-0-12-0-0-10-0-10-10-|
|-0-12-0-10-0----0-0-12-0-0-10-0-10----|
|-0-12-0-10-0----0-0-12-0-0-10-0-10----|


  D5     C5 D5N.CD5       C5    N.CD5 C5
  E  S S  S S  S S S  S S  S  S  S  S  S
|----------------------------------------|
|----------------------------------------|
|-------------10----------------10-------|
|-0-12-0-10-0-10-0-0-12-0-10-10-10-12-10-|
|-0-12-0-10-0----0-0-12-0-10-10----12-10-|
|-0-12-0-10-0----0-0-12-0-10-10----12-10-|


   Chorus
    D5F5D5G5A5G5F5G5F5  G5F5  D5F5D5G5A5G5F5G5F5  G5F5
    E S S S S S E E E S S S   E S S S S S E E E S S S
||--------------------------|--------------------------||
||o-------------------------|-------------------------o||
||--------------------------|--------------------------||
||--0-3-0-5-7-5-3-5-3-3-5-3-|-0-3-0-5-7-5-3-5-3-3-5-3--||
||o-0-3-0-5-7-5-3-5-3-3-5-3-|-0-3-0-5-7-5-3-5-3-3-5-3-o||
||--0-3-0-5-7-5-3-5-3-3-5-3-|-0-3-0-5-7-5-3-5-3-3-5-3--||
|
|   Gtr II
|   E S S S S S E E E S S S   E S S S S S E E E S S S
||--------------------------|--------------------------||
||o-------------------------|-------------------------o||
||--------------5-7-5-5-7-5-|-------------5-7-5-5-7-5--||
||--------------x-x-x-x-x-x-|-------------x-x-x-x-x-x--||
||o-------------3-5-3-3-5-3-|-------------3-5-3-3-5-3-o||
||--------------------------|--------------------------||


   Pre-Verse
    Bb5                     A5    A7sus4
     S  S  S  S  S  S  S  S  S  S  S  S  S  S  S  S
||--------------------------------10-10-10-10-10-10-|
||o-11-11-11-11-11-11-11-11-10-10--8--8--8--8--8--8-|
||--10-10-10-10-10-10-10-10--9--9--7--7--7--7--7--7-|
||---8--8--8--8--8--8--8--8--7--7--7--7--7--7--7--7-|
||o--8--8--8--8--8--8--8--8--7--7--7--7--7--7--7--7-|
||---8--8--8--8--8--8--8--8--7--7--7--7--7--7--7--7-|


  F5              G5
  S S S S S S S S S S S S S S S S
|-----------------------------------||
|-6-6-6-6-6-6-6-6-8-8-8-8-8-8-8-8--o||
|-5-5-5-5-5-5-5-5-7-7-7-7-7-7-7-7---||
|-3-3-3-3-3-3-3-3-5-5-5-5-5-5-5-5---||
|-3-3-3-3-3-3-3-3-5-5-5-5-5-5-5-5--o||
|-3-3-3-3-3-3-3-3-5-5-5-5-5-5-5-5---||


 Guitar Fill
  D5       C5 D5N.CD5         C5 D5C5 N.C.
  Gtr II
  S S  S S  S S  S S S  S S S  S S  S  S
|----------------------------------------|
|----------------------------------------|
|---------------10--------------------10-|
|-0-0-12-0-10-0-10-0-0-12-0-0-10-0-10-10-|
|-0-0-12-0-10-0----0-0-12-0-0-10-0-10----|
|-0-0-12-0-10-0----0-0-12-0-0-10-0-10----|


  D5       C5 D5N.CD5       C5       D5 C5
  S S  S S  S S  S S S  S S  S  S  S  S  S
|------------------------------------------|
|------------------------------------------|
|---------------10-------------------------|
|-0-0-12-0-10-0-10-0-0-12-0-10-10-10-12-10-|
|-0-0-12-0-10-0----0-0-12-0-10-10-10-12-10-|
|-0-0-12-0-10-0----0-0-12-0-10-10-10-12-10-|


   Verse
    D5       C5 D5N.CD5         C5 D5C5 N.C.
    Gtr I
    S S  S S  S S  S S S  S S S  S S  S  S
||-----------------------------------------|
||o----------------------------------------|
||----------------10--------------------10-|
||--0-0-12-0-10-0-10-0-0-12-0-0-10-0-10-10-|
||o-0-0-12-0-10-0----0-0-12-0-0-10-0-10----|
||--0-0-12-0-10-0----0-0-12-0-0-10-0-10----|


  D5       C5 D5N.CD5       C5       D5 C5
  S S  S S  S S  S S S  S S  S  S  S  S  S
|-------------------------------------------|
|-------------------------------------------|
|---------------10--------------------------|
|-0-0-12-0-10-0-10-0-0-12-0-10-10-10-12-10--|
|-0-0-12-0-10-0----0-0-12-0-10-10-10-12-10--|
|-0-0-12-0-10-0----0-0-12-0-10-10-10-12-10--|


  D5       C5 D5N.CD5         C5 D5C5 N.C.
  S S  S S  S S  S S S  S S S  S S  S  S
|----------------------------------------|
|----------------------------------------|
|---------------10--------------------10-|
|-0-0-12-0-10-0-10-0-0-12-0-0-10-0-10-10-|
|-0-0-12-0-10-0----0-0-12-0-0-10-0-10----|
|-0-0-12-0-10-0----0-0-12-0-0-10-0-10----|


  D5       C5 D5N.CD5       C5    N.CD5 C5
  S S  S S  S S  S S S  S S  S  S  S  S  S
|-------------------------------------------||
|------------------------------------------o||
|---------------10----------------10--------||
|-0-0-12-0-10-0-10-0-0-12-0-10-10-10-12-10--||
|-0-0-12-0-10-0----0-0-12-0-10-10----12-10-o||
|-0-0-12-0-10-0----0-0-12-0-10-10----12-10--||


 Interlude
  Bb5                     A5    A7sus4
   S  S  S  S  S  S  S  S  S  S  S  S  S  S  S  S
|-------------------------------10-10-10-10-10-10-|
|-11-11-11-11-11-11-11-11-10-10--8--8--8--8--8--8-|
|-10-10-10-10-10-10-10-10--9--9--7--7--7--7--7--7-|
|--8--8--8--8--8--8--8--8--7--7--7--7--7--7--7--7-|
|--8--8--8--8--8--8--8--8--7--7--7--7--7--7--7--7-|
|--8--8--8--8--8--8--8--8--7--7--7--7--7--7--7--7-|


  F5              G5
  S S S S S S S S S S S S S S S S
|---------------------------------|
|-6-6-6-6-6-6-6-6-8-8-8-8-8-8-8-8-|
|-5-5-5-5-5-5-5-5-7-7-7-7-7-7-7-7-|
|-3-3-3-3-3-3-3-3-5-5-5-5-5-5-5-5-|
|-3-3-3-3-3-3-3-3-5-5-5-5-5-5-5-5-|
|-3-3-3-3-3-3-3-3-5-5-5-5-5-5-5-5-|


  Bb5                     C5
   S  S  S  S  S  S  S  S  S  S  S  S  S  S  S  S
|-------------------------------------------------|
|-11-11-11-11-11-11-11-11-13-13-13-13-13-13-13-13-|
|-10-10-10-10-10-10-10-10-12-12-12-12-12-12-12-12-|
|--8--8--8--8--8--8--8--8-10-10-10-10-10-10-10-10-|
|--8--8--8--8--8--8--8--8-10-10-10-10-10-10-10-10-|
|--8--8--8--8--8--8--8--8-10-10-10-10-10-10-10-10-|


  A5    A7sus4               A11
   S  S  S  S  S  S  S  S  S S S S S S S S
|-------10-10-10-10-10-10-10-9-9-9-9-9-9-9-|
|-10-10--8--8--8--8--8--8--8-8-8-8-8-8-8-8-|
|--9--9--7--7--7--7--7--7--7-7-7-7-7-7-7-7-|
|--7--7--7--7--7--7--7--7--7-7-7-7-7-7-7-7-|
|--7--7--7--7--7--7--7--7--7-7-7-7-7-7-7-7-|
|--7--7--7--7--7--7--7--7--7-7-7-7-7-7-7-7-|


 Bridge
  Bb5                     C5                        D5       F5/Bb
   S  S  S  S  S  S  S  S  S  S  S  S  S  S  S  S   E. E E S  E.  E  E  S
|-------------------------------------------------|-----------------------|
|-11-11-11-11-11-11-11-11-13-13-13-13-13-13-13-13-|-----------------------|
|-10-10-10-10-10-10-10-10-12-12-12-12-12-12-12-12-|-----------------------|
|--8--8--8--8--8--8--8--8-10-10-10-10-10-10-10-10-|-0--0-0-0-10--10-10-10-|
|--8--8--8--8--8--8--8--8-10-10-10-10-10-10-10-10-|-0--0-0-0--8---8--8--8-|
|--8--8--8--8--8--8--8--8-10-10-10-10-10-10-10-10-|-0--0-0-0--8---8--8--8-|
|
| Gtr II
|  W                                                E. E E S  E.  E  E  S
|-------------------------------------------------|-----------------------|
|-------------------------------------------------|-----------------------|
|-------------------------------------------------|-7--7-7-7--------------|
|-------------------------------------------------|-7--7-7-7-10--10-10-10-|
|-------------------------------------------------|-5--5-5-5--8---8--8--8-|
|-------------------------------------------------|-----------8---8--8--8-|


  Bb5                     A5    A7sus4
   S  S  S  S  S  S  S  S  S  S  S  S  S  S  S  S
|-------------------------------10-10-10-10-10-10-|
|-11-11-11-11-11-11-11-11-10-10--8--8--8--8--8--8-|
|-10-10-10-10-10-10-10-10--9--9--7--7--7--7--7--7-|
|--8--8--8--8--8--8--8--8--7--7--7--7--7--7--7--7-|
|--8--8--8--8--8--8--8--8--7--7--7--7--7--7--7--7-|
|--8--8--8--8--8--8--8--8--7--7--7--7--7--7--7--7-|


  F5              G5
  S S S S S S S S S S S S S S S S
|---------------------------------|
|-6-6-6-6-6-6-6-6-8-8-8-8-8-8-8-8-|
|-5-5-5-5-5-5-5-5-7-7-7-7-7-7-7-7-|
|-3-3-3-3-3-3-3-3-5-5-5-5-5-5-5-5-|
|-3-3-3-3-3-3-3-3-5-5-5-5-5-5-5-5-|
|-3-3-3-3-3-3-3-3-5-5-5-5-5-5-5-5-|


 Outro
  G5              D5  F/DD5        F/D  D5N.CD5  N.CD5  F/DD5
                             PM--|                         PM  PM
  S S S S S S S S E E  S S S S   S  S S S  S S S  S E E  S S S S
|------------------------------|---------------------------------|
|-8-8-8-8-8-8-8-8--------------|---------------------------------|
|-7-7-7-7-7-7-7-7-----10-------|---10-----10-----10-----10-------|
|-5-5-5-5-5-5-5-5-0-0--7-0---0-|-0--7---0--7-0-0--7-0-0--7-0---0-|
|-5-5-5-5-5-5-5-5-0-0--0-0---0-|-0--0---0----0-0----0-0--0-0---0-|
|-5-5-5-5-5-5-5-5-0-0--0-0---0-|-0--0---0----0-0----0-0--0-0---0-|


    N.C. D5N.C.        D5  F/DD5
                                  PM-
  S  S S S  S  S  S  S E E  S S S S
|-----------------------------------|
|-----------------------------------|
|---10-----10-10-10-10-----10-------|
|-0--7---0--7--7--7--7-0-0--7-0---0-|
|-0------0-------------0-0--0-0---0-|
|-0------0-------------0-0--0-0---0-|


    F/D  D5N.CD5  N.CD5  Dm D5        N.C. D5N.C.
 -|                         PM  PM
  S  S S S  S S S  S E E  S S S S   S  S S S  S  S  S  S H
|---------------------------------|---------------------------*|
|---------------------------------|---------------------------*|
|---10-----10-----10-----10-------|---10-----10-10-10-10------*|
|-0--7---0--7-0-0--7-0-0--7-0---0-|-0--7---0--7--7--7--7------*|
|-0--0---0----0-0----0-0--0-0---0-|-0------0------------------*|
|-0--0---0----0-0----0-0--0-0---0-|-0------0------------------*|




--------------------------------------------------------------------------------


Duration Legend
---------------
W - whole; H - half; Q - quarter; E - 8th; S - 16th; T - 32nd; X - 64th; a - acciaccatura
+ - note tied to previous; . - note dotted; .. - note double dotted
Uncapitalized letters represent notes that are staccato (1/2 duration)
Irregular groupings are notated above the duration line
Duration letters will always appear directly above the note/fret number it represents the
duration for.  Duration letters with no fret number below them represent rests.  Multi-
bar rests are notated in the form Wxn, where n is the number of bars to rest for.  Low
melody durations appear below the staff

Tablature Legend
----------------
 h   - hammer-on
 p   - pull-off
 b   - bend
 pb  - pre-bend
 r   - bend release (if no number after the r, then release immediately)
 /\  - slide into or out of (from/to "nowhere")
 s   - legato slide
 S   - shift slide
 - natural harmonic
[n]  - artificial harmonic
n(n) - tapped harmonic
 ~   - vibrato
 tr  - trill
 T   - tap
 TP  - trem. picking
 PM  - palm muting
\n/  - tremolo bar dip; n = amount to dip
 \n  - tremolo bar down
 n/  - tremolo bar up
/n\  - tremolo bar inverted dip
 =   - hold bend; also acts as connecting device for hammers/pulls
 <> - volume swell (louder/softer)
 x   - on rhythm slash represents muted slash
 o   - on rhythm slash represents single note slash

Misc Legend
-----------
 |  - bar
||  - double bar
||o - repeat start
o|| - repeat end
*|  - double bar (ending)
 :  - bar (freetime)
 $  - Segno
 &  - Coda
Tempo markers -  = BPM(8/16=s8/s16), where s8 = swing 8ths, s16 = swing 16ths


Tap to rate this tab
# A B C D E F G H I J K L M N O P Q R S T U V W X Y Z