Song name
# A B C D E F G H I J K L M N O P Q R S T U V W X Y Z

Papa Roach - Tear My Heart Open tab

 
-------------------------------------------------------------------------------
			     Tear My Heart Open - Papa Roach
-------------------------------------------------------------------------------
Tabbed by:unknown
Email:

Tuning:standard

e|---------------------------------------------------------------------------|
B|---------------------------------------------------------------------------|
G|-------4---------------6--------9------------------------------------------|
D|-------4-------4-------6--------9------------------------------------------|
A|-------2-------4-------4--------7------------------------------------------|
E|---------------2-----------------------------------------------------------|

e|---------------------------------------------------------------------------|
B|---------------------------------------------------------------------------|
G|-------4---------------6--------9------11----------------------------------|
D|-------4-------4-------6--------9------11----------------------------------|
A|-------2-------4-------4--------7------9-----------------------------------|
E|---------------2-----------------------------------------------------------|
Tap to rate this tab
# A B C D E F G H I J K L M N O P Q R S T U V W X Y Z