Song name
# A B C D E F G H I J K L M N O P Q R S T U V W X Y Z

Papa Roach - No More Secrets tab

Band: Papa Roach
Album: The Paramour Sessions
Song: No More Secrets
Tuning: Drop D (DADGBe)

Legend: \ Slide Down
        ~ Hold the chord a little longer
        x Play as a 'dead note'

I feel that I have most if not all of the
rhythm done right, but I'm not so sure about
the solos. I do welcome any suggestions and tweaks.

Intro (after a pick slide)
e|---------------|
B|---------------|
G|-7---5---3-----| (x2)
D|-7---5---3---5-|
A|-5---3---1---5-|
D|-------------5-|

Intro Solo (during second repeat of the Intro)
e|---------------|
B|---------------|
G|-12b--12-10----|
D|------------10-|
A|---------------|
D|---------------|

e|----------------------------------------------------------|
B|----------------------------------------------------------|
G|-7-0-7p0-7p0-5p0-7p0-5-7-5-10-0-7p0-7p0-5p0-7p0-5-7-5--10-|
D|----------------------------------------------------------|
A|----------------------------------------------------------|
D|----------------------------------------------------------|

e|--------------------------------------------|
B|--------------------------------------------|
G|-0-7p0-7p0-5p0-7p0-5-7-5--10-0-7p0-7p0-5p0--|
D|--------------------------------------------|
A|--------------------------------------------|
D|--------------------------------------------|

e|---------------------------|
B|---------------------------|
G|-12b--10-12-10-12-10----7\-|
D|---------------------10----|
A|---------------------------|
D|---------------------------|

This chord is played in sync with the last solo note

e|----
B|----
G|-7\-
D|-7\-
A|-5\-
D|----

Verse

e|------------------------------------------------------|
B|------------------------------------------------------|
G|-7-7--------------------------------------------------|
D|-7-7--3~--3---3-3--8~--8---8-8--10~--10--x-x-5-0-7b---|
A|-5-5--3~--3---3-3--8~--8---8-8--10~--10--x-x-3-0-5b-0-|
D|------3~--3---3-3--8~--8---8-8--10~--10--x-x--------0-|

e|--------------------------------------------|
B|--------------------------------------------|
G|----7-7-------------------------------------|
D|-xx-7-7--3~--3---3-3--8~--8---8-8--10~--10~-|
A|-xx-5-5--3~--3---3-3--8~--8---8-8--10~--10~-|
D|-xx------3~--3---3-3--8~--8---8-8--10~--10~-|

Another Pick slide before the chorus

Chorus
e|----------------|
B|----------------|
G|--7---5---3-----|
D|--7---5---3---5-|
A|--5---3---1---5-|
D|--------------5-|

e|--------------------|
B|--------------------|
G|--7---5-------5---7-|
D|--7---5---5---5---7-|
A|--5---3---5---3---5-|
D|----------5---------|

A small solo before continuing the verse
e|------------------------------------------------|
B|------------------------------------------------|
G|--7-0-7p0-7p0-5p0-7p0-5-7-5-10-0-7p0-7p0-5p0-7/-|
D|------------------------------------------------|
A|------------------------------------------------|
D|------------------------------------------------|

Verse
e|-------------------------------------------------------------|
B|-------------------------------------------------------------|
G|-7~-7---7-7--------------------------------------------------|
D|-7~-7---7-7--3~--3---3-3--8~--8---8-8--10~--10--x-x-5-0-7b---|
A|-5~-5---5-5--3~--3---3-3--8~--8---8-8--10~--10--x-x-3-0-5b-0-|
D|-------------3~--3---3-3--8~--8---8-8--10~--10--x-x--------0-|


e|------------------------------------|
B|------------------------------------|
G|-7-7--------------------------------|
D|-7-7--3~--3---3-3--8~--8---8-8--10~-|
A|-5-5--3~--3---3-3--8~--8---8-8--10~-|
D|------3~--3---3-3--8~--8---8-8--10~-|

[Pick slide and Chorus]

Bridge
e|-----------------------------|
B|-----------------------------|
G|-0-7p0-7p0-5p0-7p0-5-7-5--10-| (x7)
D|-----------------------------|
A|-----------------------------|
D|-----------------------------|

e|---------------|
B|---------------|
G|-12b--12-10----|
D|------------10-|
A|---------------|
D|---------------|

Guitar 2 plays this with the bridge solo. Listen for the timing.
e|---------|
B|---------|
G|----7~-7-|
D|-x--7~-7-| (x4)
A|-x--5~-5-|
D|-x-------|

e|---------------------------------------------|
B|---------------------------------------------|
G|---7~-7---7-7--------------------------------|
D|-x-7~-7---7-7--3~--3---3-3--8~--8---8-8--10~-|
A|-x-5~-5---5-5--3~--3---3-3--8~--8---8-8--10~-|
D|-x-------------3~--3---3-3--8~--8---8-8--10~-|

[Chorus] (x1)

Outro
e|---------------|
B|---------------|
G|-7---5---3-----|
D|-7---5---3---5-|
A|-5---3---1---5-|
D|-------------5-|

e|---------------|
B|---------------|
G|-7---5---3---5-|
D|-7---5---3---5-|
A|-5---3---1---3-|
D|---------------|

e|------|
B|------|
G|---7~-| (x4)
D|---7~-
A|---5~-
D|------

This solo is played with the chord above.
Exempt the last note during the 4th time.
e|-----------------------------|
B|-----------------------------|
G|-0-7p0-7p0-5p0-7p0-5-7-5--10-| (x4)
D|-----------------------------|
A|-----------------------------|
D|-----------------------------|

e|------|
B|------|
G|---7\-
D|---7\-
A|---5\-
D|------

Voila, my second tab. Please leave comments and rate!
Tap to rate this tab
# A B C D E F G H I J K L M N O P Q R S T U V W X Y Z