Song name
# A B C D E F G H I J K L M N O P Q R S T U V W X Y Z

Papa Roach - I Devise My Own Demise tab

Band - Papa Roach
Song - I Devise My Own Demise
Album - The Paramour Sessions (2006)
Tuning - Drop C (CGCFAD)

Notes: There is two guitars in the recording, but since Papa Roach only has one 
they only use one to play live. Both guitars are here. The second guitar is hard to hear most of 
song so you have to listen real closely.

Intro/Guitar 1
|-------------------------------------------------------------------|
|-------------------------------------------------------------------|
|-----------------10-10-10-10-10-10-10-10-9-9-9-9-9-9-9-9-9/10-9/10-|
|-7-7-7-7-7-7-7-7-10-10-10-10-10-10-10-10-9-9-9-9-9-9-9-9-9/10-9/10-|
|-7-7-7-7-7-7-7-7-8--8--8--8--8--8--8--8--7-7-7-7-7-7-7-7-7/8--7/8--|
|-7-7-7-7-7-7-7-7---------------------------------------------------|

Intro/Guitar 2 - Comes in after you play above twice.
|---------------------------------------------------------------------|
|---------------------------------------------------------------------|
|-14-14-14-14-14-14-14-14-10-10-10-10-10/12-9-9-9-9-9-9-9-9-9/10-9/10-|
|-x--x--x--x--x--x--x--x--x--x--x--x--x-x---x-x-x-x-x-x-x-x-x-x--x-x--|
|-12-12-12-12-12-12-12-12-8--8--8--8--8-/10-7-7-7-7-7-7-7-7-7/8--7/8--|
|---------------------------------------------------------------------|

Verse/Guitar 1
|---------------------------------------------------------------------------|
|---------------------------------------------------------------------------|
|---------------------------------------------------------------------------|
|-7-7-7-x-7--7-7-7---7-7-7-x-7--7-7-7---3-3-3-x-3--3-3-3---3-3-3-x-3--3-3-3-|
|-7-7-7-x-7--7-7-7---7-7-7-x-7--7-7-7---3-3-3-x-3--3-3-3---3-3-3-x-3--3-3-3-|
|-7-7-7-x-7--7-7-7---7-7-7-x-7--7-7-7---3-3-3-x-3--3-3-3---3-3-3-x-3--3-3-3-|

Verse/Guitar 2 - Comes in after you play above once.
|----------------------------------------------|
|----------------------------------------------|
|----------------------------------------------|
|----------10-----10h14-----------10-----10----|
|-12-12-12-----12--------12-12-12-----12----10-|  x2
|----------------------------------------------|
P.M.......     ..        ........     ..

|----------------------------------------------------|
|----------------------------------------------------|
|----------------------------------------------------|
|-------7----7h9--------7----9h10--------10----10/12-|
|-8-8-8----8------8-8-8----8-------8-8-8-----8-------|
|----------------------------------------------------|
P.M....    .      .....    .       .....     .

Verse Ending/Both Guitars
|-----------------|
|-----------------|
|-----------------|
|-5-5-5-5-5-5-5-5-|
|-5-5-5-5-5-5-5-5-|
|-5-5-5-5-5-5-5-5-|

Chorus/Guitar 1
|---------------------------------------------------------------------------------|
|---------------------------------------------------------------------------------|
|-----------------10-10-10-10-10-10-10-10-12-12-12-12-12-12-12-12-----------------|
|-7-7-7-7-7-7-7-7-10-10-10-10-10-10-10-10-12-12-12-12-12-12-12-12-------10-12b-10-|
|-7-7-7-7-7-7-7-7-8--8--8--8--8--8--8--8--10-10-10-10-10-10-10-10-10-12-----------|
|-7-7-7-7-7-7-7-7-----------------------------------------------------------------|

|-----------------------------------------------------------------------------------|
|-----------------------------------------------------------------------------------|
|-----------------10-10-10-10-10-10-10-10-12-12-12-12-12-12-12-12-------------------|
|-7-7-7-7-7-7-7-7-10-10-10-10-10-10-10-10-12-12-12-12-12-12-12-12-------10-------10-|
|-7-7-7-7-7-7-7-7-8--8--8--8--8--8--8--8--10-10-10-10-10-10-10-10-10-12----10-12----|
|-7-7-7-7-7-7-7-7-------------------------------------------------------------------|

|---------------------------------------------------------------------------------|
|---------------------------------------------------------------------------------|
|-----------------10-10-10-10-10-10-10-10-12-12-12-12-12-12-12-12-----------------|
|-7-7-7-7-7-7-7-7-10-10-10-10-10-10-10-10-12-12-12-12-12-12-12-12-------10-12b-10-|
|-7-7-7-7-7-7-7-7-8--8--8--8--8--8--8--8--10-10-10-10-10-10-10-10-10-12-----------|
|-7-7-7-7-7-7-7-7-----------------------------------------------------------------|

|------------------------------------------------------------------------------------|
|------------------------------------------------------------------------------------|
|-----------------10-10-10-10-10-10-10-10-12-12-12-12-12-12-12-12--------------------|
|-7-7-7-7-7-7-7-7-10-10-10-10-10-10-10-10-12-12-12-12-12-12-12-12-------10----10-----|
|-7-7-7-7-7-7-7-7-8--8--8--8--8--8--8--8--10-10-10-10-10-10-10-10-10-12----12----12\-|
|-7-7-7-7-7-7-7-7--------------------------------------------------------------------|

Chorus/Guitar 2 - Almost impossible to hear this part.
|-------------------------------------------------------------------------------------|
|-------------------------------------------------------------------------------------|
|-------------------------------------------------------------------------------------|
|-------14-14-------14-14-----10-10-----10-10-------12-12-------12-12-------10-12b-10-|
|-12-12-------12-12-------8-8-------8-8-------10-10-------10-10-------10-12-----------|
|-------------------------------------------------------------------------------------|

|---------------------------------------------------------------------------------------|
|---------------------------------------------------------------------------------------|
|---------------------------------------------------------------------------------------|
|-------14-14-------14-14-----10-10-----10-10-------12-12-------12-12-------10-------10-|
|-12-12-------12-12-------8-8-------8-8-------10-10-------10-10-------10-12----10-12----|
|---------------------------------------------------------------------------------------|

|-------------------------------------------------------------------------------------|
|-------------------------------------------------------------------------------------|
|-------------------------------------------------------------------------------------|
|-------14-14-------14-14-----10-10-----10-10-------12-12-------12-12-------10-12b-10-|
|-12-12-------12-12-------8-8-------8-8-------10-10-------10-10-------10-12-----------|
|-------------------------------------------------------------------------------------|

|----------------------------------------------------------------------------------------|
|----------------------------------------------------------------------------------------|
|----------------------------------------------------------------------------------------|
|-------14-14-------14-14-----10-10-----10-10-------12-12-------12-12-------10----10-----|
|-12-12-------12-12-------8-8-------8-8-------10-10-------10-10-------10-12----12----12\-|
|----------------------------------------------------------------------------------------|

Fill/Guitar 1
|-------------------|
|-------------------|
|-------------------|
|-7-7-7-x-7--7-7-7\-|
|-7-7-7-x-7--7-7-7\-|
|-7-7-7-x-7--7-7-7\-|

Fill/Guitar 2
|-------------------------|
|-------------------------|
|-9-9-9-x-9--7-5----------|
|----------------7-7-x-7\-|
|-------------------------|
|-------------------------|

Play Verse without Guitar 1

Play Verse Ending

Play Chorus

Play Intro x2

Bridge/Both Guitars
|--------------------------------------------|
|--------------------------------------------|
|-----------------------5-5-5-x-5------------|
|-7-7-7-x-7--3-3-3-x-3--5-5-5-x-5--5-5-5-x-5-|
|-7-7-7-x-7--3-3-3-x-3--3-3-3-x-3--5-5-5-x-5-|
|-7-7-7-x-7--3-3-3-x-3-------------5-5-5-x-5-|

Play Verse w/ Both Guitars

Play Chorus

Post-Chorus/Both Guitars
|-------------------------------------------------|
|-------------------------------------------------|
|-----------------5-5-5-5-5-5-5-5-----------------|
|-3-3-3-3-3-3-3-3-5-5-5-5-5-5-5-5-5-5-5-5-5-5-5-5-|
|-3-3-3-3-3-3-3-3-3-3-3-3-3-3-3-3-5-5-5-5-5-5-5-5-|
|-3-3-3-3-3-3-3-3-----------------5-5-5-5-5-5-5-5-|

Ending/Both Guitars
|------------------|
|------------------|
|--------5-x-5-----|
|-3-x-3--5-x-5--5~-|
|-3-x-3--3-x-3--5~-|
|-3-x-3---------5~-|

End On
|-------|
|-------|
|-------|
|-5~~~~-|
|-5~~~~-|
|-5~~~~-|

This was much harder than I thought to tab. This is 99.9% correct. Hope you enjoy!!!
Tap to rate this tab
# A B C D E F G H I J K L M N O P Q R S T U V W X Y Z