Song name
# A B C D E F G H I J K L M N O P Q R S T U V W X Y Z

Papa Roach - My Heart Is A Fist tab

Papa Roach - My Heart Is A Fist
Tuning: DADGBE

Pre-Chorus - x1
-----------------|-----------------|-----------------|-------------|
----------8---11-|----------8---11-|----------8---11-|-10----8-----|
-7---10----------|-7---10----------|-7---10----------|----------10-|
-----------------|-----------------|-----------------|-------------|
-----------------|-----------------|-----------------|-------------|
-----------------|-----------------|-----------------|-------------|

Chorus - x1 *play each chord 8 times
-------------------------------|
-------------------------------|
-------------------------------|
-5---3---1---8---5---3---1---3-|
-5---3---1---8---5---3---1---3-|
-5---3---1---8---5---3---1---3-|

Post-Chorus - x1
-------------------------|
---------------15-----18-|
-14-----17---------------|
-------------------------|
-------------------------|
-------------------------|

Verse - x4 *PM
-----------|
-----------|
-----------|
-----------|
-----------|
-0-0-0-0-0-|

Verse - x2 *Fast Strum
-10--13-12-|-10--6-8-|
-x----x-x--|-x---x-x-|
-7---10-9--|-7---3-5-|
-----------|---------|
-----------|---------|
-----------|---------|

Pre-Chorus - x1
-----------------|-----------------|-----------------|-------------|
----------8---11-|----------8---11-|----------8---11-|-10---8------|
-7---10----------|-7---10----------|-7---10----------|----------10-|
-----------------|-----------------|-----------------|-------------|
-----------------|-----------------|-----------------|-------------|
-----------------|-----------------|-----------------|-------------|

Chorus - x2 *play each chord 8 times
---------------|---------------|
---------------|---------------|
---------------|---------------|
-5---3---1---8-|-5---3---1---3-|
-5---3---1---8-|-5---3---1---3-|
-5---3---1---8-|-5---3---1---3-|

End - x4 *let each chord ring
-----------------------------|
-----------------------------|
-----------------------------|
-5---5---3---5---1---1---8-7-|
-5---5---3---5---1---1---8-7-|
-5---5---3---5---1---1---8-7-|

End on
---
---
---
-5-
-5-
-5-

Great song from a fantastic album! Viva La Cucaracha!!!

Any comments and suggestions welcome:
- anarchados@another.com
Tap to rate this tab
 
# A B C D E F G H I J K L M N O P Q R S T U V W X Y Z