Song name
# A B C D E F G H I J K L M N O P Q R S T U V W X Y Z

Papa Vs Pretty - Heavy Harm tab

-------------------------------------------------------------------------------
			  HEAVY HARM - Papa Vs Pretty
-------------------------------------------------------------------------------
Tabbed by: Bicky
Note: Haven't got chords just yet but until then, here is the intro/verse.
http://www.papavspretty.com/

Tuning: Drop D

e|-----------------------0--------2--------|---------------------0--------2-------|
B|----------0h2h3--3--------3--------3-----|--------0h2h3--3--------3--------3----|
G|--------------------2--------2--------2--|------------------2--------2--------2-|
D|--0h2h4----------------------------------|-0h2h4--------------------------------|
A|-----------------------------------------|--------------------------------------|
E|-----------------------------------------|--------------------------------------|

e|-3--------2--------0-------------0h2p0---|----------------------------0h2p0-----|
B|----3--------3--------3----------------3-|-------------------------3--------3---|
G|-------2--------2--------2---------------|----------------------2---------------|
D|-----------------------------------------|-------------0--2--4------------------|
A|-----------------------------------------|--------------------------------------|
E|-----------------------------------------|-0------------------------------------|

Tap to rate this tab
# A B C D E F G H I J K L M N O P Q R S T U V W X Y Z