Song name
# A B C D E F G H I J K L M N O P Q R S T U V W X Y Z

Papakonstantinou Basilis - Efiva Gerakia tab

Papakonstantinou Vasilis-Efiva gerakia

Tabbed by: Hayaser.net (Rouben)


Intro

|---------------------------------------------------|
|---12--10--12-8-------------10-------10------------|
|-9--------------11-9--11-12-----11--------11-------|
|-----------------------------------12--------12----|
|---------------------------------------------------|
|---------------------------------------------------|

|---------------------------------------------------|
|---10--8--10-7-----------8-------------------------|
|-7-------------9-7--9-11---11-9--11--9--7--9-------|
|---------------------------------------------------|
|---------------------------------------------------|
|---------------------------------------------------|

 Drums Start
|---------------------------------------------------|
|---12--10--12-8-------------10-------10------------|
|-9--------------11-9--11-12-----11--------11-------|
|-----------------------------------12--------12----|
|---------------------------------------------------|
|---------------------------------------------------|
                                                       
|---------------------------------------------------|
|---10--8--10-7-----------8-------------------------|
|-7-------------9-7--9-11---11-9--11----------------|
|---------------------------------------------------|
|---------------------------------------------------| 
|---------------------------------------------------|

|---------------------------------------------------|
|---12--10--12-8-------------10-------10------------|
|-9--------------11-9--11-12-----11--------11-------|
|-----------------------------------12--------12----|
|---------------------------------------------------|
|---------------------------------------------------|

|---------------------------------------------------|
|---10--8--10-7-----------8-------------------------|
|-7-------------9-7--9-11---11-9--11--9--7--9-------|
|---------------------------------------------------|
|---------------------------------------------------|
|---------------------------------------------------|

|---------------------------------------------------|
|---12--10--12-8-------------10-------10------------|
|-9--------------11-9--11-12-----11--------11-------|
|-----------------------------------12--------12----|
|---------------------------------------------------|
|---------------------------------------------------|
                                                       
|---------------------------------------------------|
|---10--8--10-7-----------8-------------------------|
|-7-------------9-7--9-11---11-9--11----------------|
|---------------------------------------------------|
|---------------------------------------------------| 
|---------------------------------------------------|

Vocals Start

Chord Progression throughout the whole song

Power Chords

  Em    D
|---------------|
|---------------| 
|--9-----7------|
|--9-----7------|
|--7-----5------| 
|---------------|

In between the vocals the intro riff continues.
Tap to rate this tab
# A B C D E F G H I J K L M N O P Q R S T U V W X Y Z