Song name
# A B C D E F G H I J K L M N O P Q R S T U V W X Y Z

Paper Route - City Trucks tab

-------------------------------------------------------------------------------
                             City Trucks - Paper Route
-------------------------------------------------------------------------------
Tabbed by: Dillon Peruzzi

I will update the rest of what I know in just a few hours. This is my first tab, taking 
it slow.

This is what I got. Listening to the song is difficult, the singing almost drowns out
the guitar; but it is also played slightly mellow. I will add the end of the chorus
shortly. Pardon the small spacing in the tab, but I wanted to try and illustrate that it 
is not played all that slow.



Tuning: Standard

                       Intro/Verse
 |This is played 3 times|    |ending with this on the 4th|
e|---------------------------------2---2---2---2---------|
B|3------2---0-----0-------------------------------------|
G|---2----2-----2---2----------------2---2---2---2-------|
D|---------------------------------0--0----0--0----------|
A|2-----0----3----3--------------------------------------|
E|-------------------------------------------------------|

                             Chorus

e|2---2---2---2---0--0---0---0--------------------|
B|-------------------------------3--3-3--3-3--3---|
G|--2--2----2--2---2---2--2---2---2--2-2--2-2--2--|
D|0--0----0--0----0-0----0--0---------------------|
A|-------------------------------2-2--0-0---------|
E|-----------------------------------------3-3----| 

************************************

| /   slide up
| \   slide down
| h   hammer-on
| p   pull-off
| ~   vibrato
| +   harmonic
| x   Mute note
| b   Bend
| pb  Pre-bend
| br  Bend release
| pbr Pre-bend release
| brb Bend release bend

************************************
Tap to rate this tab
# A B C D E F G H I J K L M N O P Q R S T U V W X Y Z