Song name
# A B C D E F G H I J K L M N O P Q R S T U V W X Y Z

Papinka - Di Mana Hatimu tab

Papinka - Dimana Hatimu (solo Tab)(Alief.O.Ice)

(/) Slide Up  (\) Slide Down  (h) Hammer On  (p) Pull Off  (b) Bend (r) Release (v) Vibrato


[[intro] D A Bm F#m G D A

solo awal

E|------------------------------------------------------------------|
B|------------------------------------------------------------------|
G|--------------------------7-6h7p6---------------------------------|
D|-4-4-4---4-5-5/7------------------9-7----5-4-5-7/9--4h5p4---------|7(harmonic)
A|------------------7-7-------------------------------------7-9-5/7-|
E|------------------------------------------------------------------|

   D             A
inilah akhir cintaku
   Bm           F#m
inilah akhir kisahku
    G         D              A
setelah kau jauh tinggalkan aku

      D              A
tak bisa ku melupakanmu
      Bm          F#m
tak bisa aku tanpamu
       G         D                  A
tak pernah aku rela kau tinggalkan aku

G                      F#m
tiada ku sangka engkau berubah
Em          A         D
ku tak percaya kau membagi cinta
G                  F#m     Bm
tahukah engkau betapa sakitnya
         Em               A
kau membagi cinta karna dia

[chorus]
        D              A/C#
tak pernah ku coba melupakanmu
     Bm               F#m
mengapa kau buat luka hatiku
  G             F#m   Bm
sekian lama aku menunggu
  Em              A
kasih dimana hatimu

      D               A
tak bisa ku coba melupakanmu
     Bm               F#m
mengapa kau buat luka hatiku
  G             F#m   Bm
sekian lama aku menunggu
  Em             A
kasih dimana hatimu


      D              A
tak bisa ku melupakanmu
      Bm          F#m
tak bisa aku tanpamu
       G         D                  A
tak pernah aku rela kau tinggalkan aku

G                      F#m
tiada ku sangka engkau berubah
Em          A         D
ku tak percaya kau membagi cinta
G                  F#m     Bm
tahukah engkau betapa sakitnya
         Em               A
kau membagi cinta karna dia

[solo] Bm A/C# D
       Bm A/C# G A

Solo Tengah

E|-----10---9----------------------------------------------------------------------------|
B|--------------10/12-10-------------------------------------------------------12----10--|
G|-5/7----7---7----------7-9b11b9-7-9-11---------7---7------7---7-9-11-9b11b9-----11-----|
D|---------------------------------------7---7-9---9----7-9---9--------------------------|
A|---------------------------------------------------------------------------------------|
E|---------------------------------------------------------------------------------------|

E|-------------------------------------------------------------------------------|
B|---------------------------------10---12-12-12/10-10-10-10/7-7-7-7/10-10-10-10-|
G|-9/11-9-7-9-9/11-9-9-7-7/6-6-7/9-----------------------------------------------|
D|-------------------------------------------------------------------------------|
A|-------------------------------------------------------------------------------|
E|-------------------------------------------------------------------------------|

E|--------------------------------|
B|--------------------------------|
G|-7-7-7/9-9-9-9-6-6-6/7-7-7-7----|
D|--------------------------------|
A|--------------------------------|
E|--------------------------------|

E|-----------------------------------------------------------------------------------|
B|---------------------7h8p7---7-8-10-------------------------------7-8-7-8-10b12b10-|
G|-----7-6-7-6-----7-9-------9--------7-7-9-7-9b11b9-9-7-9b11b9-9-7------------------|
D|-7-9---------7-9-------------------------------------------------------------------|
A|-----------------------------------------------------------------------------------|
E|-----------------------------------------------------------------------------------|


[chorus]
        D              A/C#
tak pernah ku coba melupakanmu
     Bm               F#m
mengapa kau buat luka hatiku
  G             F#m   Bm
sekian lama aku menunggu
  Em              A
kasih dimana hatimu

      D               A
tak bisa ku coba melupakanmu
     Bm               F#m
mengapa kau buat luka hatiku
  G             F#m   Bm
sekian lama aku menunggu
  Em             A
kasih dimana hatimu


ending D ~
Tap to rate this tab
# A B C D E F G H I J K L M N O P Q R S T U V W X Y Z