Guitaretab - guitar tabs
Song name
# A B C D E F G H I J K L M N O P Q R S T U V W X Y Z

Pappo - Juntos A La Par tab

SOLO(1:08):

e[---------7------------------------------------------------------------------|
B[------8--8--10--8-8-8h10---------------------------------------------8------|
G[--7h9-----------7-7---------7-7s9---7s9-7s9----------------------7h9--------|
D[---------------------------------------------7-7s9----------7-9-------------|
A[----------------------------------------------------3s7-10------------------|
E[----------------------------------------------------------------------------|
[ Tab from: http://www.guitaretab.com/p/pappo/81898.html ]
 --------10------------------------------------------------------------|
 ---8s10----10--------8-----10b12-10-8-10------------------------------|
 --------------7-7h9-----9---------------------------------------------|
 ----------------------------------------------------------------------|
 ----------------------------------------------------------------------|
 ----------------------------------------------------------------------|


                             G
-------------------------------------------]
-------------------------------------------]
--------------7-9----7---------------------]
---------7-9------9----7-7h9--7------------]
--7--10--------------------------10--------]
-------------------------------------------]

francoscarse@hotmail.com
Related for Juntos A La Par tab
×
Best way to learn
"Juntos A La Par"