Guitaretab - guitar tabs
Song name
# A B C D E F G H I J K L M N O P Q R S T U V W X Y Z

Pappo - Buscando Un Amor tab

 intro
E|------------------------------------------|
B|------------------------------------------|
G|------------------------------------------|    2+2 (2 marcadas, 2 comunes)
D|----------5-6-7---------------------------|
A|----7--7---------7--7--7-6-5--------------|
E|------------------------------------------|

voy buscando, buscando un amor
obsecionado en busca de un amor

   E
por mas que este undido
       E
finalmente yo saldre
 A                                         est.
a la superficie,
     A
con ganas de volver
riff est.
a encontrarte

buscando un amor


solo armonica: intro x 4
               base de est.
solo viola: intro x 4
            base de est.
[ Tab from: http://www.guitaretab.com/p/pappo/82415.html ]
voy buscando, buscando un amor
obsecionado en busca de un amor

a la luz del dia
o a plena luz del sol
cuando el cielo caiga                       est.
con una obsecion, seguire buscando
buscando un amor

intro x 4 y final

est.:
    E    E    A    A    riff est.
e|---------------------------------------------|
B|---------------------------------------------|
G|--9----9-------------------------------------|
D|--9----9----7----7---------------------------|
A|--7----7----7----7----7-7-7-5---------5-7----|
E|------------5----5------------7-7---7--------|

final:
E|-----------------------------|
B|-----------------------------|
G|-----------------------------|
D|----------5-6-7--------------|
A|----7--7---------7--7--------|
E|-----------------------------|

Related for Buscando Un Amor tab
×
Best way to learn
"Buscando Un Amor"