Song name
# A B C D E F G H I J K L M N O P Q R S T U V W X Y Z

Par Four - Rearranged tab

Song: Rearranged
Band: Par Four
Album: A Six Track Record
Website: parfour.cjb.net
Email : par4our@hotmail.com

Intro
e|------------------------------------------|
b|------------------------------------------|
g|-7-7-7-7-7--------------------------------|
d|-7-7-7-7-7-7-7-7-7-7-9-9-9-9-9-5-5-5-5-5--|
a|-5-5-5-5-5-7-7-7-7-7-9-9-9-9-9-5-5-5-5-5--|
e|-----------5-5-5-5-5-7-7-7-7-7-3-3-3-3-3--|

Verse - *=palm mute 5 times
e|-----------------------|
b|-----------------------|
g|-7-7*------------------|
d|-7-7*-7-7*-5-5*-5-5*---|
a|-5-5*-7-7*-5-5*-5-5*---|
e|------5-5*-3-3*-3-3*---|

Chorus
e|-------------------|
b|-------------------|
g|-7-77--------------|
d|-7-77-7-7-xx-9-5---|
a|-5-55-5-5-xx-9-5---|
e|------5-5-xx-7-3---|

Solo - play 4 times then back to verse then chorus
e|-----------------------------------------------------|
b|-----------------------------------------------------|
g|-7-7-7-7-7-9-9-9-9-9-12-12-12-12-12-12-12-12-12-12---|
d|-7-7-7-7-7-9-9-9-9-9-12-12-12-12-12-12-12-12-12-12---|
a|-5-5-5-5-5-7-7-7-7-7-10-10-10-10-10-10-10-10-10-10---|
e|-5-5-5-5-5-7-7-7-7-7-10-10-10-10-10-10-10-10-10-10---|
Tap to rate this tab
# A B C D E F G H I J K L M N O P Q R S T U V W X Y Z