Song name
# A B C D E F G H I J K L M N O P Q R S T U V W X Y Z

Parachute Band - Come To The River tab

Hey guys, this song was pretty hard for me to tab because a video lesson I
watched by the guitarist himself, was pretty bad. But No worries, im here. I 
may have some of this wrong, so please just email me with your edited 
version if you happen to make it sound better or fix any problems, :D ( 
anarcheril@gmail.com ) Also, if you have the rest of the song please email 
me :D.

Come to the river - Parachute Band ( intro )

p = pull off
\ = down slide


e|-----12-12p-----------8----------------------10----|
B|------------13--------10----------8-8p-------12----|
G|-\14------------------10---------------9-----12----|
D|------------------------------\10------------------|  x2
A|---------------------------------------------------|
E|---------------------------------------------------|

e|--12--12----8---8---------------------------10-----|
B|--13--13----10--10-----8---8---8---8---8----12-----|
G|--14--14----10--10-----9---9---9---9---9----12-----|
D|-----------------------10--10--10--10--10----------| x2
A|---------------------------------------------------|
E|---------------------------------------------------|
Tap to rate this tab
# A B C D E F G H I J K L M N O P Q R S T U V W X Y Z