Song name
# A B C D E F G H I J K L M N O P Q R S T U V W X Y Z

Parachute Band - The Way chords

Highlighted       Show chord diagrams
Intro

E----------------------------------------------------------------------------------|
A----------------------------------------------------------------------------------|
D----------------------------------------------------------------------------------|
G----------------------------------------------------------------------------------|
B------------------------9-9-9-12-12-12-9-9-9--------------------9-9-9-------------|
E-11-11-11-9-9-9-11-11-11--------------------11-11-11-9-11-11-11-------14-16-14-16-|

E------------------------------------------------------------------------------------------|
A------------------------------------------------------------------------------------------|
D------------------------------------------------------------------------------------------|
G------------------------------------------------------------------------------------------|
B------------------------9-9-9-12-12-12-9-9-9----------------------------------------------|
E-11-11-11-9-9-9-11-11-11--------------------11-11-11-9-9-9-11-11-11-11-11--11h12p11h12p11-|

Verse 1

B                             E2
We believe that Jesus You are God
   G#m                               E2
You reign in Heaven and You reign on earth
    F#                 G#m
For You came to make a way for us
    E2            F#
You opened up the door of grace
C#m                     E2
Jesus itís your name we proclaim

Chorus

    B                       C#m
For You are the way that's everlasting
G#m               E2
Giving it all to set us free
     B                  C#m
The Truth, the Life, the One
            E
You are the Way

Verse 2

B                                  E2
We won't look to the left or the right
    G#m                          E2
You are the One we fix our eyes upon
       F#                  G#m
For we run the race before us now
   E2
In You we find our great reward
C#m                       E2
Jesus it's Your name we proclaim

Chorus

    B                       C#m
For You are the way that's everlasting
G#m               E2
Giving it all to set us free
     B                  C#m
The Truth, the Life, the One
            E
You are the Way


Chorus 2

    B                       C#m
For You are the way that's everlasting
G#m               E2
Giving it all to set us free
     B                  C#m
The Truth, the Life, the One
            A
You are the Way

Bridge Intro

E--------X-X-X-X--------X-X-X-X-|
A-2-2-2--X-X-X-X-2-2-2--X-X-X-X-|
D-4-4-4--X-X-X-X-4-4-4--X-X-X-X-|
G-4-4-4--X-X-X-X-4-4-4--X-X-X-X-|     X4
B-4-4-4--X-X-X-X-4-4-4--X-X-X-X-|
e-2-2-2--X-X-X-X-2-2-2--X-X-X-X-|

Bridge

E2 B2 F# G#m
Hallelujah
E2 B2  F#    G#m   x3
Hallelujah

Chorus
    B                       C#m
For You are the way that's everlasting
G#m               E2
Giving it all to set us free
     B                  C#m
The Truth, the Life, the One
            E
You are the Way

Chorus 2

    B                       C#m
For You are the way that's everlasting
G#m               E2
Giving it all to set us free
     B                  C#m
The Truth, the Life, the One
            A
You are the Way
Tap to rate this tab
# A B C D E F G H I J K L M N O P Q R S T U V W X Y Z