Song name
# A B C D E F G H I J K L M N O P Q R S T U V W X Y Z

Parachute Va - She Is Love Acoustic tab

She Is Love (Acoustic Version) - Parachute

This is the version off the new single on i tunes. I just put in fills
that i play. You can make them up however you like. This song is played
best when finger picked. Great Song!!!

*1/2 Step Down*

Intro:
e-------------------------------------------------|
B--8---3---5---3---3------3----8---3---5---3---3--|
G--0---0---0---0---0------2p0--0---0---0---0---0--|
D-----------------------0-------------------------|
A--------------3---------------------------3------|
E--8---3---5-------3-----------8---3---5-------3--|

Verse 1:

e----------------------------------------------------------------------|
B--------------3------------------5---8---------5------------8---3---3-|
G------------0------------------0-----0---------0------------0---0---0-|
D----------0------------------4----------------------------------------|
A--------3------------------5-------------------5--------------------3-|
E-------------------------------------8----------------------8---3-----|
Ive been beaten down Ive been kicked around but she takes it all for me

e----------------------------------------------------------------------|
B--------------3------------------5---8---------5------------8---3---3-|
G------------0------------------0-----0---------0------------0---0---0-|
D----------0------------------4----------------------------------------|
A--------3------------------5-------------------5--------------------3-|
E-------------------------------------8----------------------8---3-----|
And I lost my faith In my darkest days but she makes me want to believe

Chorus 1:

e-------------------------------------|
B-------------8----3----5----3----3---|
G-------------0----0----0----0----0---|
D-------------------------------------|
A----------------------------3--------|
E-------------8----3----5---------3---|
They call her love love love love love

e-------------------------------------|
B-------------8----3----5----3----3---|
G-------------0----0----0----0----0---|
D-------------------------------------|
A----------------------------3--------|
E-------------8----3----5---------3---|
They call her love love love love love

e-----------------------------------|
B--------3--------------------------|
G------0----------------------------|
D----0------------------------------|
A--3--------------------------------|
E-----------------------------------|
She is love... And she is all i need


e--------------------------------------------------------|
B--8----3----5----3----3-----3-----3-----8--3--5--3--3---|
G--0----0----0----0----0-----2p0---2p0---0--0--0--0--0---|
D--------------------------0-----0-----------------------|
A-----------------3-------------------------------3------|
E--8----3----5---------3-----------------8--3--5-----3---|
                                        She is all i need

Verse 2:

e----------------------------------------------------------------------|
B--------------3------------------5---8---------5------------8---3---3-|
G------------0------------------0-----0---------0------------0---0---0-|
D----------0------------------4----------------------------------------|
A--------3------------------5-------------------5--------------------3-|
E-------------------------------------8----------------------8---3-----|
Well i had my ways They were all in vein       And she waited patiently

e----------------------------------------------------------------------|
B--------------3------------------5---8---------5------------8---3---3-|
G------------0------------------0-----0---------0------------0---0---0-|
D----------0------------------4----------------------------------------|
A--------3------------------5-------------------5--------------------3-|
E-------------------------------------8----------------------8---3-----|
It was all the same All my pride and shame    But she put me on my feet

Chorus 2:

e------------------------------------------------------|
B-------------8----3----5----3----3-------3-------3----|
G-------------0----0----0----0----0-----2---2---2---2--|
D-------------------------------------0-------0--------|
A----------------------------3-------------------------|
E-------------8----3----5---------3--------------------|
They call her love love love love love

e------------------------------------------------|
B-------------8----3----5----3----3-----3-3-3-3--|
G-------------0----0----0----0----0-----2h4-2-0--|
D-------------------------------------0----------|
A----------------------------3-------------------|
E-------------8----3----5---------3--------------|
They call her love love love love love

e---------------------------------------------------|
B------------8----3----5----3----3------3-------3---|
G------------0----0----0----0----0------0-----0-----|
D---------------------------------------------------|
A---------------------------3-----------------------|
E------------8----3----5---------3------3---3-------|
the call her love love love love love

e-----------------------------------|
B--------3--------------------------|
G------0----------------------------|
D----0------------------------------|
A--3--------------------------------|
E-----------------------------------|
She is love... And she is all i need

Bridge: (75% sure this is right)

e------------------------------------------------------|
B--------3--------------------3-----------3---------3--|
G------0--------------------0-----------0---------0----|
D----4--------------------4-----------4---------0------|
A--5--------------------0---------------------3--------|
E-----------------------------------0------------------|
Cause when that world  Slows       Down      Dear

e------------------------------------------------------|
B--------3--------------------3-----------3---------3--|
G------0--------------------0-----------0---------0----|
D----4--------------------4-----------4---------0------|
A--5--------------------0---------------------3--------|
E-----------------------------------0------------------|
And when those stars   Burn        Out       Here

e-----------------------------------|
B--3--------------------------------|
G--0--------------------------------|
D-----------------------------------|
A--3--------------------------------|
E-----------------------------------|
Oh she'll be here Yes she'll be here

Chorus 3:

e------------------------------------------------|
B-------------8----3----5----3----3-----3-3-3-3--|
G-------------0----0----0----0----0-----2h4-2-0--|
D-------------------------------------0----------|
A----------------------------3-------------------|
E-------------8----3----5---------3--------------|
They call her love love love love love

e------------------------------------------------------|
B-------------8----3----5----3----3-------3-------3----|
G-------------0----0----0----0----0-----2---2---2---2--|
D-------------------------------------0-------0--------|
A----------------------------3-------------------------|
E-------------8----3----5---------3--------------------|
They call her love love love love love

e---------------------------------------------------|
B------------8----3----5----3----3------3-------3---|
G------------0----0----0----0----0------0-----0-----|
D---------------------------------------------------|
A---------------------------3-----------------------|
E------------8----3----5---------3------3---3-------|
the call her love love love love love

e------------------------------------|
B--------3---------------3-----------|
G------0---------------0-------------|
D----0---------------4---------------|
A--3---------------5-----------------|
E------------------------------------|
She is love     And she is all i need

e------------------------------------|
B--------3---------------3-----------|
G------0---------------0-------------|
D----4---------------4---------------|
A------------------5-----------------|
E--0---------------------------------|
She is love     And she is all i need

e----------------------------------------3--|
B--------3---------------3---------------3--|
G------0---------------0-----------------0--|
D----0---------------0-------------------0--|
A--3---------------2---------------------2--|
E----------------------------------------3--|
She is love     And she is all i need

That is it. Enjoy. Awesome song by an up and coming band.
Tap to rate this tab
 
# A B C D E F G H I J K L M N O P Q R S T U V W X Y Z