Song name
# A B C D E F G H I J K L M N O P Q R S T U V W X Y Z

Parachute - She For Liz tab

Intro/Verses 
E-----(x)--------(x)----------0---0---0-|
B---3-(x)--0-0-0-(x)----------0---8---0-|
G---4-(x)--6-6-7-(x)--4-4-0---7---9---2-|
D---4-(x)--7-7-7-(x)--0-0-5---7---9---2-|
A---2-(x)--4-4/5-(x)--5-5-5---5---7---0-|
E-----(x)--------(x)--2-2/3-------------|

Chorus
E--2---3-0---0---0---0---0------|
B--3---3-3---3---3---3---3---2--|
G--2---0-0---0---2---0---0---2--| (Repeat 2X's)
D------2-2---0---0---2---0---2--|
A--------2---2-------2---2------|
E--------x---3-----------3------|
Tap to rate this tab
# A B C D E F G H I J K L M N O P Q R S T U V W X Y Z