Song name
# A B C D E F G H I J K L M N O P Q R S T U V W X Y Z

Parachute - Kiss Me Slowly chords

Highlighted       Show chord diagrams
			     Kiss Me Slowly - Parachute

Tabbed by: mangoman295
Tuning: standard


This is the first tab I've ever done. I saw the other tabs and they are wrong so I
decided to do it myself. I am 99.9 % sure that it is correct. I watched the music video and
figured it out by ear. It is a really easy song, good for beginners. Good luck! Enjoy! 
(music video link at the bottom)


======CAPO 2nd======

intro, verse 1, verse 2

    E   F#  / G    E  / C    D

E|--x----2----3----x--------------------------------------------------------|
A|--2----x----x----2----3---------------------------------------------------|
D|---------------------------0----------------------------------------------|
G|---------------------------2----------------------------------------------|
B|--3----3----3----3----3----3----------------------------------------------|
e|--3----3----3----3----3----2----------------------------------------------|


CHORUS is the same all the way through, this is same as the BRIDGE

    E    G    E    D

E|--x----3----x-------------------------------------------------------------|
A|--2---------2-------------------------------------------------------------|
D|-----------------0--------------------------------------------------------|
G|-----------------2--------------------------------------------------------|
B|--3----3----3----3--------------------------------------------------------|
e|--3----3----3----2--------------------------------------------------------|

************************************

 /   slide up



http://www.youtube.com/watch?v=lXqYw_II6Pc&NR=1
Tap to rate this tab
# A B C D E F G H I J K L M N O P Q R S T U V W X Y Z