Song name
# A B C D E F G H I J K L M N O P Q R S T U V W X Y Z

Parade The Day - Now Im Awake tab

Intro/Verse

|-----------------------------------------|
|-----------------------------------------|
|--11-11--7---9-9-9----11-11--7---9-9-----|     Intro x2
|--11-11--7---9-9-9----11-11--7---9-9--9--|     Verse x2
|--9--9---5---7-7-7----9--9---5---7-7--9--|
|--------------------------------------7--|

Pre-Chorus

|-------------------|
|-------------------|
|--7-7-7-7-7-7-7-7--|
|--7-7-7-7-7-7-7-7--|
|--5-5-5-5-5-5-5-5--|
|-------------------|

Chorus


|------------------------|         |-----|              |---------|
|------------------------|         |-----|              |---------|
|--7-----9-11-9--7----9--|         |-11-9|              |-9-9-9-9-|  
|--7-7---9-11-9--7-7--9--|ending 1 |-11-9|   ending 2   |-9-9-9-9-|  
|--5-7---7-9--7--5-7--7--|         |-9--7|              |-7-7-7-7-|
|----5-------------5-----||         -----|              |---------|


Verse 2

|-----------------------------------------|
|-----------------------------------------|
|--11-11--7---9-9-9----11-11--7---9-9-----|     Intro x2
|--11-11--7---9-9-9----11-11--7---9-9--9--|     Verse x2
|--9--9---5---7-7-7----9--9---5---7-7--9--|
|--------------------------------------7--|

Pre-Chorus

|-------------------|
|-------------------|
|--7-7-7-7-7-7-7-7--|
|--7-7-7-7-7-7-7-7--|
|--5-5-5-5-5-5-5-5--|
|-------------------|

Chorus


|------------------------|         |-----|              |---------|
|------------------------|         |-----|              |---------|
|--7-----9-11-9--7----9--|         |-11-9|              |-9-9-9-9-|  
|--7-7---9-11-9--7-7--9--|ending 1 |-11-9|   ending 2   |-9-9-9-9-|  
|--5-7---7-9--7--5-7--7--|         |-9--7|              |-7-7-7-7-|
|----5-------------5-----||         -----|              |---------|

Bridge

|-----------------------------|
|-----------------------------|
|-7--11--7--11--7--11--9------|
|-7--11--7--11--7--11--9------|  x4
|-5--9---5--9---5--9---7------|
|-----------------------------|

Outro


|------------------------|         |-----|              |---------|
|------------------------|         |-----|              |---------|
|--7-----9-11-9--7----9--|         |-11-9|              |-9-9-9-9-|  
|--7-7---9-11-9--7-7--9--|ending 1 |-11-9|   ending 2   |-9-9-9-9-|  x2
|--5-7---7-9--7--5-7--7--|         |-9--7|              |-7-7-7-7-|
|----5-------------5-----||         -----|              |---------|
Tap to rate this tab
# A B C D E F G H I J K L M N O P Q R S T U V W X Y Z