Guitaretab - guitar tabs
Song name
# A B C D E F G H I J K L M N O P Q R S T U V W X Y Z

Parade The Day - American Dream tab

Parade the Day - American Dream
Tuning: Drop D [DADGBE]

Pretty good song. Not too easy because of the stretch on the intro riff, but if you have 
hands you can do it pretty easy.
Nothing really too complicated about it. Have fun playin it.


intro riff [continues till lead riff comes in]

|----------------------------------------|
|-3---3-5---7---7---3---2---2-3---0---0--|
|---7-----7---7-------7---7-----7---7----|
|----------------------------------------|
|----------------------------------------|
|----------------------------------------|


lead pre-verse riff [2x] [let ring second time]

|-----------------------------------------5--|
|-ph3---3---2-3---2---------2---3-2---3------|
|---------------------2----------------------|
|--------------------------------------------|
|--------------------------------------------|
|--------------------------------------------|


rhythm pre-verse

|-------------------------------------------------------|
|-------------------------------------------------------|
|-7---7-7---7-------------------------------------------|
|-7---7-7---7---5---5-5---0---7---7-7---9---5---5-5---0-|
|-5---5-5---5---5---5-5---0---7---7-7---9---5---5-5---0-|
|---------------5---5-5---0---7---7-7---9---5---5-5---0-|


verse lead

|--5--------5-5-------5--------5-5--------|
|----5----------5-------5----------5------|
|------7----------7-------7----------7----|
|-----------------------------------------|
|-----------------------------------------|
|-----------------------------------------|


verse rhythm

|-----------------------|
|-----------------------|
|-----------------------|
|--0-----5-----9-----7--|
|--0-----5-----9-----7--|
|--0-----5-----9-----7--|


pre-chorus [both guitars]
[ Tab from: http://www.guitaretab.com/p/parade-the-day/169375.html ]
|--------------------------------------------------------------------|
|--------------------------------------------------------------------|
|--------------------------------------------------------------------|
|--2---2-0---2--0---2---2-0---2--0---5---5-0---5--0---5---5-0---5--0-|
|--2---2-0---2--0---2---2-0---2--0---5---5-0---5--0---5---5-0---5--0-|
|--2---2-0---2--0---2---2-0---2--0---5---5-0---5--0---5---5-0---5--0-|

|--------------------------------------------------------------------|
|--------------------------------------------------------------------|
|--------------------------------------------------------------------|
|--2---2-0---2--0---2---2-0---2--0---5---5-0---5--0---7---7-7---7----|
|--2---2-0---2--0---2---2-0---2--0---5---5-0---5--0---7---7-7---7----|
|--2---2-0---2--0---2---2-0---2--0---5---5-0---5--0---7---7-7---7----|


chorus [both guitars]

|---------------------------------|
|---------------------------------|
|---------------------------------|
|--5---5---9---9---7---7---7---7--|
|--5---5---9---9---7---7---7---7--|    2x
|--5---5---9---9---7---7---7---7--|

|---------------------------------|
|---------------------------------|
|---------------------------------|
|--5---5---0---0---7---7---7---7--|
|--5---5---0---0---7---7---7---7--|    1x
|--5---5---0---0---7---7---7---7--|

second time play this:

|----------------------------------------------------|
|----------------------------------------------------|
|----------------------------------------------------|
|--5---5---0---0----2---2-0---2--0---2---2-0---2--0--|
|--5---5---0---0----2---2-0---2--0---2---2-0---2--0--|
|--5---5---0---0----2---2-0---2--0---2---2-0---2--0--|


bridge [starts with intro, then has this riff, then goes back to intro]

|-----------------------------------2---0--|
|--2---3-----2---------2---3---------------|
|-----------------2------------------------|
|------------------------------------------|
|------------------------------------------|
|------------------------------------------|


Intro
preverse
verse
prechorus
chorus
preverse
verse
prechorus
chorus
intro
bridge
intro
chorus x2
preverse
Related for American Dream tab