Guitaretab - guitar tabs
Song name
# A B C D E F G H I J K L M N O P Q R S T U V W X Y Z

Parade The Day - Now Im Awake Acoustic tab

Intro-Piano

Verse 1
|-0--0----0-----0-0-0-----0--0----0----0--0----0---|
|-0--0----3-----0-0-0-----0--0----3----0--0----0---|
|-2--2----2-----1-1-1-----2--2----2----1--1----2---|
|-4--4----0-----2-2-2-----4--4----0----2--2----2---|      x2
|-4--4----0-----2-2-2-----4--4----0----2--2----0---|
|-0--0----0-----0-0-0-----0--0----0----0--0----0---|

Pre-chorus

|-0-0-0-0-0-0-0-0-|
|-3-3-3-3-3-3-3-3-|
|-2-2-2-2-2-2-2-2-|
|-0-0-0-0-0-0-0-0-|
|-0-0-0-0-0-0-0-0-|
|-0-0-0-0-0-0-0-0-|

Chorus

|--0-0---0-0--0--0-0--0--|         |-0--0|              |-0-0-0-0-|
|--3-0---0-0--0--3-0--0--|         |-0--0|              |-0-0-0-0-|
|--2-2---1-2--1--2-2--1--|         |-2--1|              |-1-1-1-1-|  
|--0-2---2-4--2--0-2--2--|ending 1 |-4--2|   ending 2   |-2-2-2-2-|  
|--0-0---2-4--2--0-0--2--|         |-4--2|              |-2-2-2-2-|
|--0-0---0-0--0--0-0--0--|         |-0--0|              |-0-0-0-0-|
[ Tab from: http://www.guitaretab.com/p/parade-the-day/182848.html ]
Verse 2
|-0--0----0-----0-0-0-----0--0----0----0--0----0---|
|-0--0----3-----0-0-0-----0--0----3----0--0----0---|
|-2--2----2-----1-1-1-----2--2----2----1--1----2---|
|-4--4----0-----2-2-2-----4--4----0----2--2----2---|      x2
|-4--4----0-----2-2-2-----4--4----0----2--2----0---|
|-0--0----0-----0-0-0-----0--0----0----0--0----0---|

Pre-chorus

|-0-0-0-0-0-0-0-0-|
|-3-3-3-3-3-3-3-3-|
|-2-2-2-2-2-2-2-2-|
|-0-0-0-0-0-0-0-0-|
|-0-0-0-0-0-0-0-0-|
|-0-0-0-0-0-0-0-0-|

Chorus

|--0-0---0-0--0--0-0--0--|         |-0--0|              |-0-0-0-0-|
|--3-0---0-0--0--3-0--0--|         |-0--0|              |-0-0-0-0-|
|--2-2---1-2--1--2-2--1--|         |-2--1|              |-1-1-1-1-|  
|--0-2---2-4--2--0-2--2--|ending 1 |-4--2|   ending 2   |-2-2-2-2-|  
|--0-0---2-4--2--0-0--2--|         |-4--2|              |-2-2-2-2-|
|--0-0---0-0--0--0-0--0--|         |-0--0|              |-0-0-0-0-|

Bridge

|-0--0---0--0---0--0---0------|
|-3--0---3--0---3--0---0------|
|-2--2---2--2---2--2---1------|
|-0--4---0--4---0--4---2------|  x4
|-0--4---0--4---0--4---2------|
|-0--0---0--0---0--0---0------|

Outro

|--0-0---0-0--0--0-0--0--|         |-0--0|              |-0-0-0-0-|
|--3-0---0-0--0--3-0--0--|         |-0--0|              |-0-0-0-0-|
|--2-2---1-2--1--2-2--1--|         |-2--1|              |-1-1-1-1-|  
|--0-2---2-4--2--0-2--2--|ending 1 |-4--2|   ending 2   |-2-2-2-2-|  
|--0-0---2-4--2--0-0--2--|         |-4--2|              |-2-2-2-2-|
|--0-0---0-0--0--0-0--0--|         |-0--0|              |-0-0-0-0-|
Related for Now Im Awake Acoustic tab