Song name
# A B C D E F G H I J K L M N O P Q R S T U V W X Y Z

Paradise Fears - Home Acoustic tab

Song: Home (Acoustic)
Band: Paradise Fears

Tuning: DADGAD

Intro:
D--0-------0-------0---------------------------|
A--0-------0-------0---------------------------|
G--0-------7-------6---------------------------|
D--0-------0-------0---------------------------|
A--5-------9-------7---------------------------|
D--5-------9-------7---------------------------|

Verse:
"Can you feel this...."
D---0----0----0----0---------------------------|
A---0----0----0----0---------------------------|
G---7----2----6----0---------------------------|
D---0----0----0----0---------------------------|
A---9----0----7----5---------------------------|
D---9----0----7----5---------------------------|

Pre-Chorus:
"You said, you said..."
D--0---0----0-----0----0----0-----0------------|
A--0---0----0-----0----0----0-----0------------|
G--0---2----7-----5----0----2-----6------------|
D--0---0----0-----0----0----0-----0------------|
A--5---0----9-----7----5----0-----7------------|
D--5---0----9-----7----5----0-----7------------|

Chorus:
"Home, why am i everywhere...."
D--0------0-----0--------------------|
A--0------0-----0--------------------|
G--0------7-----6--------------------|
D--0------0-----0--------------------|
A--5------9-----7--------------------|
D--5------9-----7--------------------|

Verse

Pre-Chorus:
D--0--0--0--0-----0---0---0---0-----------------|
A--0--0--0--0-----0---0---0---0-----------------|
G--0--2--7--6-----1---2---4---6-----------------|
D--0--0--0--0-----0---0---0---0-----------------|
A--5--0--9--7-----2---4---5---7-----------------|
D--5--0--9--7-----2---4---5---7-----------------|


Chorus


Bridge:
"When the miles...."              
D--0--0--0--0-----0--0--0--0-------------------|
A--0--0--0--0-----0--0--0--0-------------------|
G--7--4--2--6-----1--4--2--6-------------------|
D--0--0--0--0-----0--0--0--0-------------------|
A--9--5--0--7-----2--5--0--7-------------------|
D--9--5--0--7-----2--5--0--7-------------------|

"...god just take me home"
D--------0------------|
A--------0------------|
G--------0------------|
D--------0------------|
A--------5------------|
D--------5------------|

Chorus

Outro:
(1 strum each)

D----0------0-----0----------------------------|
A----0------0-----0----------------------------|
G----7------0-----6----------------------------|
D----0------0-----0----------------------------|
A----9------5-----7----------------------------|
D----9------5-----7----------------------------|

Tap to rate this tab
# A B C D E F G H I J K L M N O P Q R S T U V W X Y Z