Song name
# A B C D E F G H I J K L M N O P Q R S T U V W X Y Z

Paradise Fears - Last Breath Acoustic tab

Last Breath (Acoustic) - Paradise Fears
Album: Acoustic EP


TUNING: DADGAD


Intro:

D-----0---------0----------0-----------------------------|
A-----0---------0----------0-----------------------------|
G-----4---------2----------6-----------------------------| x2
D-----0---------0----------0-----------------------------|
A-----5---------0----------7-----------------------------|
D-----5---------0----------7-----------------------------|


Verse:
"These tired eyes....."
D---0------0------0--------------------------------------|
A---0------0------0--------------------------------------|
G---4------7------6--------------------------------------| x4
D---0------0------0--------------------------------------|
A---5------9------7--------------------------------------|
D---5------9------7--------------------------------------|


"Your line's been drawn"
D----0-----------0---------------------------------------|
A----0-----------0---------------------------------------|
G----4-----------6---------------------------------------|
D----0-----------0---------------------------------------|
A----5-----------7---------------------------------------|
D----5-----------7---------------------------------------|


Chorus:
"I'll take this shot...."

D--0------0-------0--------------------------------------|
A--0------0-------0--------------------------------------|
G--4------6-------7--------------------------------------| x2
D--0------0-------0--------------------------------------|
A--5------7-------9--------------------------------------|
D--5------7-------9--------------------------------------|

"I hope you find...."
D----0----0------0---------------------------------------|
A----0----0------0---------------------------------------|
G----4----2------6---------------------------------------| x2
D----0----0------0---------------------------------------|
A----5----0------7---------------------------------------|
D----5----0------7---------------------------------------|


Intro x1

"....shared, breathing for two...."
D---0----0----0------------------------------------------|
A---0----0----0------------------------------------------|
G---4----7----6------------------------------------------| x4
D---0----0----0------------------------------------------|
A---5----9----7------------------------------------------|
D---5----9----7------------------------------------------|

"Our lines are crossed"
D----0--------0------------------------------------------|
A----0--------0------------------------------------------|
G----4--------6------------------------------------------|
D----0--------0------------------------------------------|
A----5--------7------------------------------------------|
D----5--------7------------------------------------------|


Chorus


Bridge:
"I guess it's our little...."
D--0----0-----0----0-------0----0---0---0----------------|
A--0----0-----0----0-------0----0---0---0----------------|
G--7----4-----2----6-------1----4---2---6----------------|
D--0----0-----0----0-------0----0---0---0----------------|
A--9----5-----0----7-------2----5---0---7----------------|
D--9----5-----0----7-------2----5---0---7----------------|


Chorus/Outro:
"I'll take this shot..."

D---0----0----0------------------------------------------|
A---0----0----0------------------------------------------|
G---4----6----7------------------------------------------|
D---0----0----0------------------------------------------|
A---5----7----9------------------------------------------|
D---5----7----9------------------------------------------|

"I hope you find...."
D---0------0-------0-------------------------------------|
A---0------0-------0-------------------------------------|
G---4------2-------6-------------------------------------|
D---0------0-------0-------------------------------------|
A---5------0-------7-------------------------------------|
D---5------0-------7-------------------------------------|
Tap to rate this tab
# A B C D E F G H I J K L M N O P Q R S T U V W X Y Z