Song name
# A B C D E F G H I J K L M N O P Q R S T U V W X Y Z

Paradise Lost - The Rise Of Denial tab

-------------------------------------------------------------------------------
			     The Rise Of Denial - Paradise Lost
-------------------------------------------------------------------------------
Tabbed by:Garzone
Email: garzone94@gmail.com

A classic song
Didn't see it tabbed anywhere else so i tabbed did
Rate and commmment you guys :P

Tuning: Drop A (A,E,A,C#,E,A) yeah it's really low...
Intro: Lead Guitar

e|------8---7~----8---7~----8---7-5---5------------8---7~----8---7~----8---7-|
B|-5~-5---5-----5---5-----5---5-----8---8-7-5~---5---5-----5---5-----5---5---|
G|---------------------------------------------------------------------------|
D|---------------------------------------------------------------------------|
A|---------------------------------------------------------------------------|
E|---------------------------------------------------------------------------|

e|-5---5-----|
B|---8---8-7-|
G|-----------|
D|-----------|
A|-----------|
E|-----------|

Intro: Rhythym Guitar
e|---------------------------------------------------------|
B|---------------------------------------------------------|
G|---------------------------------------------------------|
D|---------------------------------------------------------|
A|-0~--0-4~-4-3~-3--7-7-8-3-2-0~--0-4~-4-1~-1-111111111111-|
E|-0~--0-4~-4-3~-3--7-7-8-3-2-0~--0-4~-4-1~-1-111111111111-|
                                              ............

Main Riff: Lead Guitar
e|------------------------------------------------------------------|
B|------------------------------------------------------------------|
G|------------------------------------------------------------------|
D|----------------------------------------------------7---8---------|
A|-0000-0000-0006--0000-0000-2-1~-0000-0000-0006--9-8-5---6---------|
E|-0000-0000-0006--0000-0000------0000-0000-0006--9-8-------7h8-332-|
   .... .... ...   .... ....      .... .... ...                 ...
Ascending from your fallen past...Life it's the same
...Ascending to a lonliness, for you never

Main Riff: Rhythym Guitar
e|----------------------------------------------------------|
B|----------------------------------------------------------|
G|----------------------------------------------------------|
D|---------------------------9-8~---------------------7---8-|
A|-0000-0000-0006--0000-0000------0000-0000-0006--9-8-5---6-|
E|-0000-0000-0006--0000-0000------0000-0000-0006--9-8-------|
   .... .... ...   .... ....      .... .... ...


Pre-Chorus: Lead Guitar
e|---------------------------------------------------|
B|---------------------------------------------------|
G|-8~-8~-8~-----------------8~-8~-8~-----------------| X 2
D|-5~-5~-5~-----------------5~-5~-5~-----------------|
A|-5~-5~-5~-----------------5~-5~-5~-----------------|
E|----------555-888-777-666----------555-888-777-666-|
            ... ... ... ...          ... ... ... ...
Through cahnnels of uncertainty, a rise of denial
...This sadness is positioning, as Fortunes snares lay me down...

Pre-Chorus: Rhythym guitar
e|----------------------------------------------------|
B|----------------------------------------------------|
G|----------------------------------------------------|
D|----------------------------------------------------| X 2
A|-8~-7~-5~------------------8~-7~-5~-----------------|
E|-8~-7~-5~--555-888-777-666-8~-7~-5~-555-888-777-666-|
             ... ... ... ...          ... ... ... ...


Chorus: Lead Guitar
e|-----------------------------|
B|-----------------------------|
G|-----------------------------|
D|-7~--------------8-7-5-------|
A|-5~--8~--5~--3~--------8-7-5-|
E|-----8~--5~--3~--------------|
In a dream despite, the air we breath, serenity

Chorus: Rhythym
e|-------------------|
B|-------------------|
G|-------------------|
D|-7~----------------|
A|-5~--8~--5~--3~-2~-|
E|-----8~--5~--3~-2~-|


Chorus: Lead Guitar
e|------8---7~----8---7~----8---7-5---5------------8---7~----8---7~----8---7-|
B|-5~-5---5-----5---5-----5---5-----8---8-7-5~---5---5-----5---5-----5---5---|
G|---------------------------------------------------------------------------|
D|---------------------------------------------------------------------------|
A|---------------------------------------------------------------------------|
E|---------------------------------------------------------------------------|
                                      serenity...
e|-5---5-----|
B|---8---8-7-|
G|-----------|
D|-----------|
A|-----------|
E|-----------|


Chorus: Rhythym Guitar
e|---------------------------------------------------------|
B|---------------------------------------------------------|
G|---------------------------------------------------------|
D|---------------------------------------------------------|
A|-0~--0-4~-4-3~-3--7-7-8-3-2-0~--0-4~-4-1~-1-111111111111-|
E|-0~--0-4~-4-3~-3--7-7-8-3-2-0~--0-4~-4-1~-1-111111111111-|
                                              ............

VERSE 2
Both guitars repeat Main Riff
Grip the dead hands of the last
Detritus invades
Indefinite the consequence
For you endeavor
To
Aggravate uncertainty, a rise of denial
This passion wont forgive
And I'll fortune tears you down


CHOURUS
Both guitars repeat Chorus
All that's been ignites
Suppressing me,
Serenity, Serenity 

Pre-Solo: Lead guitar
e|--------------------|
B|--------------------|
G|-6~--6~--6~--6~--6~-|
D|--------------------|
A|--------------------|
E|--------------------|

Pre-Solo: Rhythym guitar
e|---------------------|
B|---------------------|
G|---------------------|
D|---------------------|
A|-10~--6~--5~--1~--0~-|
E|-10~--6~--5~--1~--0~-|

Solo: Lead guitar (In the song he plays a 7 string,
i dont have one, so this is how to play with 6 strings)

e|---------------------------------------------------------------------------|
B|-15b17-17p15h17-17p15----15~-15\13-----------------------------------------|
G|----------------------16-----------13~-13p11----11~-11\9-8~-9p8------------|
D|---------------------------------------------13-----------------10~-10p8---|
A|-------------------------------------------------------------------------10|
E|---------------------------------------------------------------------------|

e|----------------|
B|----------------|
G|----------------|
D|-10-------------|
A|----10-8-10-8-6-|
E|----------------|


Solo: Rhythym guitar
e|---------------------|
B|---------------------|
G|---------------------|
D|---------------------|
A|-10~--6~--5~--1~--0~-|
E|-10~--6~--5~--1~--0~-|


Harmony guitars: Lead
e|-9~--12~--13~--15~--16~--15~--13~--12~-|
B|---------------------------------------|
G|---------------------------------------|
D|---------------------------------------| X 5
A|---------------------------------------|
E|---------------------------------------|

Harmony guitars: Rhythym
e|-----------------------------------|
B|-10~--13~--9~--5~--2~--8~--6~--14~-|
G|-----------------------------------|
D|-----------------------------------| X 3
A|-----------------------------------|
E|-----------------------------------|

Harmony guitars: Rhythym part 2
e|-------------------------------------------------------------------------------|
B|-------------------------------------------------------------------------------|
G|-------------------------------------------------------------------------------|
D|-------------------------------------------------------------------------------| X 2
A|-5-5555-5555-555555--1-1111-1111-111111--0-0000-0000-000000-6-6666-6666-666666-|
E|-5-5555-5555-555555--1-1111-1111-111111--0-0000-0000-000000-6-6666-6666-666666-|
     ...  ...  ...       ...  ...  ...       ...  ...  ...      ...  ...  ...

CHORUS
Both guitars repeat Chorus

Outro: Lead guitar
e|-------------------------------------------------------|--------------------|
B|-5~--8-8-8/10-5\3-5--8-8-8/10-5\3-5--8-8-8/10-12-10/12~|--------------------|
G|-------------------------------------------------------|-8~-----------------|
D|-------------------------------------------------------|--Play-on-last^^----|
A|-------------------------------------------------------|--time--------------|
E|-------------------------------------------------------|--------------------|

e|-----------------------------------------------------------------------------------------------|
B|-----------------------------------------------------------------------------------------------|
G|-----------------------------------------------------------------------------------------------|
D|7~-7~-777--------------------------------------------------------------------------------------|
A|5~-5~-555--8~-8~-888--5~-5~-555--3~-333-2~-222-0~--0~-000-8~-8~-888--5~-5~-555--3~-333-2~-222-0|
E|-----------8~-8~-888--5~-5~-555--3~-333-2~-222-0~--0~-000-8~-8~-888--5~-5~-555--3~-333-2~-222-0|
                                        ...    ...        ...                          ...    ...


************************************

| /   slide up
| \   slide down
| h   hammer-on
| p   pull-off
| ~   vibrato
| +   harmonic
| .   Palm mute
| b   Bend
| pb  Pre-bend
| br  Bend release
| pbr Pre-bend release
| brb Bend release bend

************************************
Tap to rate this tab
# A B C D E F G H I J K L M N O P Q R S T U V W X Y Z