Song name
# A B C D E F G H I J K L M N O P Q R S T U V W X Y Z

Paradise Lost - Forever After tab

			   FOREVER AFTER - Paradise Lost
-------------------------------------------------------------------------------
Tabbed by: Nahmal

THANKS TO"Unserene"FOR THE ORIGINAL TAB (This is just a tuning retranscription ) /!\

Tuning: 1/2 Step Down (Eb Ab Db Gb Bb eb ) (1/2 ton en dessous)

Rythm Chorus (repeat several times during the song)(répéter plusieurs fois dandans la chanson )
|-----------------------------------------------------------------------------|
|-----------------------------------------------------------------------------|
|---------------------------------4444444444444444----------------------------|
|-444444444444444477777777222222224444444444444444----------------------------|
|-444444444444444477777777222222222222222222222222----------------------------|
|-22222222222222225555555500000000--------------------------------------------|

Lead part (riff mélodique)
|----------------------------------------------|
|------10s12--10----10s12----12s14----12s14----|
|----------------11-------11-------14------11--|
|----------------------------------------------|
|----------------------------------------------|
|----------------------------------------------|

Arpeggio (arpèges durant le couplet)
(during verse w/chorus pedal )
------------------------------------------------------------|
---------9--10-----------9--10-----------9--10--------------|
-----11--------------11--------------11--------------11-----|
---11--11--11--11--11--11--11--11--11--11--11--11--11--11---|
--9---------------9---------------9--------------9----------|
------------------------------------------------------------|

Bridges are single strings riffs base on the same chords than chorus rythm.
(les bridges sont des riffs sur une seule corde basés sur les même accords que le 
rythme du refrain )

************************************

| /   slide up
| \   slide down
| h   hammer-on
| p   pull-off
| ~   vibrato
| +   harmonic
| x   Mute note
| b   Bend
| pb  Pre-bend
| br  Bend release
| pbr Pre-bend release
| brb Bend release bend

************************************
Tap to rate this tab
 
# A B C D E F G H I J K L M N O P Q R S T U V W X Y Z