Song name
# A B C D E F G H I J K L M N O P Q R S T U V W X Y Z

Paradise Lost - Solitary One tab

*Off the Tragic Idol LP
** Tuning is ADGCFAD
***Sorry, no leads

Intro - Rhythm (repeat x2) 
D | -------------------------|
A | -------------------------| 
F | -------------------------| 
C | -------------------------| 
G | -------------5-7-8-------| 
D | --10---10-9--3-5-6----4--| 
A | --8----8--7-----------2--| 

Intro Part 2 - Rhythm (when lead comes in) - repeat x2 
D | ------------------------|
A | ------------------------| 
F | ------------------------| 
C | ------------------------| 
G | --7---7-6---6-9-10------| 
D | --5---5-4---4-7-8----6--| 
A | ---------------------4--| 

Verse - Rhythm (same as intro, I'm just showing a different/easy way) 
D | ----------------------|
A | ----------------------| 
F | ----------------------| 
C | ----------------------| 
G | --5---5-4--5-7-8------| 
D | --3---3-2--3-5-6---4--| 
A | -------------------2--| 

Verse Part 2 - Rhythm 
D | --------------------|
A | --------------------| 
F | --------------------| 
C | --------10-9--------| 
G | ------9-10-7--------| 
D | --5---7-8--7--7--11-| 
A | --3-----------5--9--| 

"Weary frustration..." part 
D | --------------------|
A | --------------------| 
F | --------------------| 
C | --------------------| 
G | --4---3---2--5---7--| 
D | --2---1---0--3---5--| 
A | --------------------| 

"I'm bleeding with the solitary one..." part 
D | -------------------|
A | -------------------| 
F | -------------------| 
C | -------------------| 
G | --4----------------| 
D | --2---5----4----2--| 
A | ------3----2----0--| 

Outro 
D | ------------------------------------------------| 
A | ------------------------------------------------| 
F | ---------------4-------6---------------2-----1--| 
C | -------------4------6----------------4-----2----| 
G | -----4-----2------4-------2----4---4-----2------| 
D | --2-----------------------0--2------------------| 
A | -------3-------------------------3--------------| 
Tap to rate this tab
 
# A B C D E F G H I J K L M N O P Q R S T U V W X Y Z