Song name
# A B C D E F G H I J K L M N O P Q R S T U V W X Y Z

Paradise Lost - Theories From Another World tab

Paradise Lost
Tragic Idol
Theories From Another World

7-string tuned down one full step (ADGCFAD)
===================================================


Intro (tremolo pick the open D string throughout)
D | ----------------------------------|
A | ----------------------------------|
F | ----------------------------------|
C | ----------------------------------|
G | ----------------------------------|
D | -0--14-15---0--11-12---0--8-8-11--|
A | ----------------------------------|

Intro 2nd Part
D | --------------------------------------|
A | --------------------------------------|
F | --------------------------------------|
C | --------------------------------------|
G | --------------------------------------|
D | -0--14-15---0--11-12---0--15-14-x-12--|
A | --------------------------------------|

Heavy Version of Intro/Pre Chorus
Pound the open D string as in the intro
D | -----------------|------------------|
A | -----------------|------------------|
F | -----------------|------------------|
C | -----------------|------------------|
G | --4-5------------|--4-5------5-4-2--|
D | --2-3--6-7--3-6--|--2-3--6-7-3-2-0--|
A | -------4-5--1-4--|-------4-5--------|

Verse
Play as Power Chords on 2nd turn
D | -------------------------|---------------|
A | -------------------------|---------------|
F | -------------------------|---------------|
C | -------------------------|---------------|
G | -------------------------|------6--5-----|
D | -0---4--3-------0--4--3--|--7---4--3--6--|
A | -------------4-----------|--5---------4--|

Chorus Rhythm (tremolo picking)
D | ---------------------|
A | ---------------------|
F | ---------------------|
C | ---------------------|
G | ---------------------|
D | --0----8----7----11--|
A | ---------------------|

Post Chorus - Rhythm
D | --------------------|
A | --------------------|
F | --------------------|
C | --------------------|
G | -----------------6--|
D | --5----3----2----4--|
A | --3----1----0-------|

1st Half of Outro Rhythm
D | ----------------------------------|
A | -----------------|----------------|
F | --9--11--12--11--|--8--9--11--12--|
C | --x--x---x----x--|--x--x---x---x--|
G | --7--9---10---9--|--6--7---9--10--|
D | -----------------|----------------|
A | -----------------|----------------|

2nd Half of Outro Rhythm
D | ---------------------------------|
A | ---------------------------------|
F | ---------------------------------|
C | -------4-0-----------------------|
G | --2----2-0-5----5/7/9----9/7-----|
D | --0--------3----3/5/7----7/5--6--|
A | ------------------------------4--|
Tap to rate this tab
# A B C D E F G H I J K L M N O P Q R S T U V W X Y Z