Song name
# A B C D E F G H I J K L M N O P Q R S T U V W X Y Z

Paradise Lost - In This We Dwell tab

Paradise Lost
Tragic Idol
In This We Dwell
Tuning: A D G C F A D
=======================================================================
Notes
+ Video of Greg playing the intro shows that he changes positions, moving toward the nut 
for the final 2 or 3 notes.
  I think if you transpose the notes from the C string to the high A or D strings
  then you'll get more of the authentic way Greg plays it. I just feel more comfortable 
playing as I have tabbed the intro.
+ All Lead parts - I can't play lead so the notes are my best guesses.
+ No main solo
=======================================================================

Intro
D |------------------------------------|-----------------------------------------|
A |------------------------------------|-----------------------------------------|
F |-----7---8-----5---7--------7-------|------7---8-----5---7--------7-----------|
C |-5-5---5---5-5---5---5-8--5----7^8--|--5-5---5---5-5---5---5-8--5----7^8^7^5--|
G |------------------------------------|-----------------------------------------|
D |------------------------------------|-----------------------------------------|
A |------------------------------------|-----------------------------------------|

                                       Play x2
D |----------------------------------||--------------------------||
A |----------13-15-15v----15^13-13v--||-15-15^13^11-15-15^13^11--||
F |-12-14-15-------------------------||--------------------------||
C |----------------------------------||--------------------------||
G |----------------------------------||--------------------------||
D |----------------------------------||--------------------------||
A |----------------------------------||--------------------------||
                   F       C    C#      G#            G

D |-------------------------------------------------------|
A |-16-15-13-15-13-11-13-11----11-------------------------|
F |-------------------------14----14-12-12v-----14-15v----|
C |-------------------------------------------------------|
G |-------------------------------------------------------|
D |-------------------------------------------------------|
A |-------------------------------------------------------|
    C                     G              F       C   C#

D |-------------------------------------------|----------------------|
A |--------------------------------13-15-15v--|----------------------|
F |-----------------------12-14-15------------|----------------------|
C |--------------12-13-15---------------------|----------------------|
G |-----12-13-15------------------------------|----------------------|
D |--15---------------------------------------|--Depress whammy bar--|
A |-------------------------------------------|----------------------|
     G#                       G     C           G

Intro
Repeat x2 (F C C# G# G C G)
Approximate chord locations are written below the Intro Lead tab
D |----------------------------------|
A |----------------------------------|
F |----------------------------------|
C |--------7-------------------------|
G |--5-----5--------8-----7-------7--|
D |--3--------6-----6-----5--5----5--|
A |-----------4--------------3-------|


Verse lead-in
D |---------------------------------------|-------------------------------------|
A |---------------------------------------|-------------------------------------|
F |---------------------------------------|-------------------------------------|
C |------5--------------------------------|------5--------5---------------------|
G |------5-----5---6-5-5-5-5-6^5^3-6^5^3--|------5-----5--3----55(5)/8-77(7)/5--|
D |--3-3-3-3-3---3---3-3-3-3--------------|--3-3-3-3-3----3----33(3)/6-55(5)/3--|
A |---------------------------------------|-------------------------------------|


Verse 1 part 1
*Play main riff, then *1, back to main riff, then *2
D |----------------|---------------------|----------------|
A |----------------|---------------------|----------------|
F |----------------|---------------------|--5-3-2--3-2----|
C |----------------|---------------------|-------------5--|
G |--555555-----5--|--5-7-8---7-8-10--5--|----------------|
D |--333333--6--3--|--3-5-6---5-6-8---3--|----------------|
A |----------4-----|---------------------|----------------|
   main riff        *1                    *2

Verse 1 part 2
D |-----------------------------------------------------------|
A |-----------------------------------------------------------|
F |-----------------------------------------------------------|
C |-----------------------------------------------------------|
G |-----------333333-666666666666-----------------------------|
D |--333333333-------------------6666666666/55555------55555--|
A |----------------------------------------------333333-------|


Chorus x2
D |------------------------------------|-----------------------------------------|
A |------------------------------------|-----------------------------------------|
F |------------------------------------|-----------------------------------------|
C |--------------7---------------------|-----------------------------------------|
G |--5-----------5---------------------|--8------------7----------7--------------|
D |--3----------------6----------------|--6------------5-----5----5--------------|
A |-------------------4----------------|---------------------3-------------------|
Chorus Lead
D |------------------------------------|-----------------------------------------|
A |------------------------------------|-----------------------------------------|
F |-----7---8-----5---7--------7-------|------7---8-----5---7--------7-----------|
C |-5-5---5---5-5---5---5-8--5----7^8--|--5-5---5---5-5---5---5-8--5----7^8^7^5--|
G |------------------------------------|-----------------------------------------|
D |------------------------------------|-----------------------------------------|
A |------------------------------------|-----------------------------------------|


Verse lead-in #2
D |---------------------------------------|-------------------------------------|
A |---------------------------------------|-------------------------------------|
F |---------------------------------------|-------------------------------------|
C |------5--------------------------------|------5--------5---------------------|
G |------5-----5---6-5-5-5-5-6^5^3-6^5^3--|------5-----5--3----55(5)/8-77(7)/5--|
D |--3-3-3-3-3---3---3-3-3-3--------------|--3-3-3-3-3----3----33(3)/6-55(5)/3--|
A |---------------------------------------|-------------------------------------|


Verse 2 part 1
D |---------------------------------------|
A |---------------------------------------|
F |-------------------------5-3-2--3-2----|
C |------------------------------------5--|
G |--5555555-----5--5555555---------------|
D |--3333333--6--3--3333333---------------|
A |-----------4---------------------------|


Verse 2 part 2
D |-----------------------------------------------------------|
A |-----------------------------------------------------------|
F |-----------------------------------------------------------|
C |-----------------------------------------------------------|
G |-----------333333-666666666666-----------------------------|
D |--333333333-------------------6666666666/55555------55555--|
A |----------------------------------------------333333-------|


Chorus x2
D |------------------------------------|-----------------------------------------|
A |------------------------------------|-----------------------------------------|
F |------------------------------------|-----------------------------------------|
C |--------------7---------------------|-----------------------------------------|
G |--5-----------5---------------------|--8------------7----------7--------------|
D |--3----------------6----------------|--6------------5-----5----5--------------|
A |-------------------4----------------|---------------------3-------------------|
Chorus Lead
D |------------------------------------|-----------------------------------------|
A |------------------------------------|-----------------------------------------|
F |-----7---8-----5---7--------7-------|------7---8-----5---7--------7-----------|
C |-5-5---5---5-5---5---5-8--5----7^8--|--5-5---5---5-5---5---5-8--5----7^8^7^5--|
G |------------------------------------|-----------------------------------------|
D |------------------------------------|-----------------------------------------|
A |------------------------------------|-----------------------------------------|


Breakdown (2:12 of the song)
D |-------------------------------------|--------------|--------------|
A |-------------------------------------|--------------|--------------|
F |-------------------------------------|--------------|--------------|
C |-------------------------------------|--------------|--------------|
G |----------------------10~--10/12/13~-|----12--------|--------------|
D |--8~--8/10/11~--11/10----------------|-10----13-12--|-10^8^6-8^6/5-|
A |-------------------------------------|--------------|--------------|
Breakdown Lead (2:12 of the song)
D |--------8-----------8------------------8-----------8---------------|
A |----------8-6---------8-6----------------8-6---------8-6-----------|
F |--5-7-8-------8-7-5-------5v-----5-7-8-------8-7-5-------5v--------|
C |-------------------------------------------------------------------|
G |-------------------------------------------------------------------|
D |-------------------------------------------------------------------|
A |-------------------------------------------------------------------|


Breakdown part 2 (2:29 of the song)
D | ----------------------------------------------|
A | ----------------------------------------------|
F | ----------------------------------------------|
C | ----------------------------------------------|
G | ----6-5-3---5-3------6-5-3-5-3---3------------|
D | --3-------3-----6--3-----------6---6-5-3-5-3--|
A | ----------------------------------------------|
Breakdown LEAD part 2
D |---------------------------------------------|
A |----4-3-----3-------4-3---3------------------|
F |--------5-----5-3-------5---5-3-5-3-2---2----|
C |--5-------5-------5-------------------5---5--|
G |---------------------------------------------|
D |---------------------------------------------|
A |---------------------------------------------|


Solo Rhythm x4
2nd half fades in
D |-----------------------------------------|-----------------------------------|
A |-----------------------------------------|-----------------------------------|
F |-----------------------------------------|-----------------------------------|
C |-------------------------------------8/7-|-----5--------5--------------------|
G |------------------5----55-8/7--10/8--6/5-|-----5-----5--3----55(5)/8-77(7)/5-|
D |--3----33-6----66-3----33-6/5--8-/6------|-3-3-3-3-3----3----33(3)/6-55(5)/3-|
A |--1----11-4----44------------------------|-----------------------------------|


Verse part 2 x2
D |-----------------------------------------------------------|
A |-----------------------------------------------------------|
F |-----------------------------------------------------------|
C |-----------------------------------------------------------|
G |-----------333333-666666666666-----------------------------|
D |--333333333-------------------6666666666/55555------55555--|
A |----------------------------------------------333333-------|
Lead Guitar Verse part 2 x2
D |----------------------------------------------------------|
A |-----------4-3~--------------------------3----------------|
F |----------------------------5~---------------3~-----2~----|
C |--5~------------------------------------------------------|
G |----------------------------------------------------------|
D |----------------------------------------------------------|
A |----------------------------------------------------------|


Chorus x2
D |------------------------------------|-----------------------------|-----------|
A |------------------------------------|-----------------------------|-----------|
F |------------------------------------|-----------------------------|-----------|
C |--------------7---------------------|-----------------------------|-----------|
G |--5-----------5---------------------|--8------------7----------7--|--7/8/7/5--|
D |--3----------------6----------------|--6------------5-----5----5--|--5/6/5/3--|
A |-------------------4----------------|---------------------3-------|-----------|
Chorus Lead
D |------------------------------------|-----------------------------------------|
A |------------------------------------|-----------------------------------------|
F |-----7---8-----5---7--------7-------|------7---8-----5---7--------7-----------|
C |-5-5---5---5-5---5---5-8--5----7^8--|--5-5---5---5-5---5---5-8--5----7^8^7^5--|
G |------------------------------------|-----------------------------------------|
D |------------------------------------|-----------------------------------------|
A |------------------------------------|-----------------------------------------|
Tap to rate this tab
# A B C D E F G H I J K L M N O P Q R S T U V W X Y Z