Song name
# A B C D E F G H I J K L M N O P Q R S T U V W X Y Z

Paradox - Product Of Imagination tab

|-----0----------0-----------0-----------0-----------0------------0-------|
|------0----------0-----------0-----------0-----------0------------0------|
|-------0----------0-----------0-----------0-----------0------------0-----|
|---5------5---5------5---5-------5---5-------5---5--------5---5-------5--|
|--7------7---7------7---7-------7---7-------7---7--------7---7-------7---|
|-0----------9----------0-----------9-----------0------------9------------|

|------0-----------0-------0---0---0---3---3---3---0---0---0---0---0---0--|
|-------0-----------0-------0---0---0---0---0---0---0---0---0---0---0---0-|
|--------0-----------0-------0---0-------0---0-------0---0-------0---0----|
|---5-------5---5-------5-------------------------------------------------|
|--7-------7---7-------7--------------------------------------------------|
|-0-----------9-----------------------------------------------------------|

|-0---0---0---3---3---3---0---0---0---0---0---0---2---2---2---3---3---2---|
|--0---0---0---0---0---0---0---0---0---0---0---0---0---0---0---0---0---0--|
|---0---0-------0---0-------0---0-------0---0-------0---0-------0---0-----|
|-------------------------------------------------------------------------|
|-------------------------------------------------------------------------|
|-------------------------------------------------------------------------|

|-0---0---0--5---5---5--2---2---2---3---3---2---0---0---0---0---0---0-----|
|--0---0------5---5------0---0---0---0---0---0---0---0---0---0---0---0----|
|---0---0------5---5------0---0-------0---0-------0---0-------0---0-------|
|-------------------------------------------------------------------------|
|-------------------------------------------------------------------------|
|-------------------------------------------------------------------------|

|-0---0---0---3---3---3---0---0---0--0------------------------------------|
|--0---0---0---0---0---0---0---0---0--------------------------------------|
|---0---0-------0---0-------0---0-----------------------------------------|
|-------------------------------------------------------------------------|
|-------------------------------------------------------------------------|
|-------------------------------------------------------------------------|

This is all for now..ill finish it up later

http://www.paradox-bangers.de/
Tap to rate this tab
 
# A B C D E F G H I J K L M N O P Q R S T U V W X Y Z